Log in

One click and you are in

Login with Facebook Login with Google

Why sign up and log in

Guitar Tabs Explorer
Gorillaz bass tabs for Sound check gravity

Bass tabs

  • Difficulty: Beginner
Tuning: Standard (E A D G)


Intro:

G|---------------------------------------------------------------------------|
D|---------------------------------------------------------------------------| x4
A|---------------------------------------------------------------------------|
E|-3h5-5-5-3h5-5-5-3h5-5-5-3-0-----------------------------------------------|
-ay-ay-ay-ay-ay...
Chorus:

G|---------------------------------------------------------------------------|
D|---------------------------------------------------------------------------| x8
A|-0-5-0-5--3-3-0------------------------------------------------------------|
E|----------------0----------------------------------------------------------|
I don't pull me down...

Interlude:

G|---------------------------------------------------------------------------|
D|---------------------------------------------------------------------------|x8
A|---------------------------------------------------------------------------|
E|-3h5-5-5-3h5-5-5-3h5-5-5-3-0-----------------------------------------------|
I don't know, love is breaking...


Chorus:

G|---------------------------------------------------------------------------|
D|---------------------------------------------------------------------------| x8
A|-0-5-0-5--3-3-0------------------------------------------------------------|
E|----------------0----------------------------------------------------------|
I don't pull me down...


Outro:

G|---------------------------------------------------------------------------|
D|---------------------------------------------------------------------------|
A|---------------------------------------------------------------------------|x8
E|-3h5-5-5-3h5-5-5-3h5-5-5-3-0-----------------------------------------------|
I don't know, love is breaking...





************************************

| h  Hammer-on

************************************

Almost there ...

Sign in to get your own page with links to favourite songs and more. You are just one click away...

Login with Facebook Login with Google