Log in

One click and you are in

Login with Facebook Login with Google

Why sign up and log in

Guitar Tabs Explorer
Gorillaz tabs for Saturnz barz

Guitar tabs

Intro: "press the button to begin"

    1  e  +  a  2  e  +  a  3  e  +  a  4  e  +  a
e|--------------16----14----------------------------|
b|--------14-15-------------------------------------|
A chord diagramG+G|-----14-------------------------------------------|
A chord diagramD MajorD|--16----------------------------------------------|
A chord diagramA augmentedA|--------------------------------------------------|
A chord diagramE MajorE|--------------------------------------------------|

    1  e  +  a  2  e  +  a  3  e  +  a  4  e  +  a
e|--------------14-16-17-16-14----------------------|
b|--------14-15-------------------15-14-15-14-15-14-|
A chord diagramG+G|-----14-------------------------------------------|
A chord diagramD MajorD|--16----------------------------------------------|
A chord diagramA augmentedA|--------------------------------------------------|
A chord diagramE MajorE|--------------------------------------------------|

    1  e  +  a  2  e  +  a  3  e  +  a  4  e  +  a
e|--------------------------------------------------|
b|--------------------------------------------------|
A chord diagramG+G|--15----14----------------------------------------|
A chord diagramD MajorD|--------------------------------------------------|
A chord diagramA augmentedA|--------------------------------------------------|
A chord diagramE MajorE|--------------------------------------------------|

    1  e  +  a  2  e  +  a  3  e  +  a  4  e  +  a
e|--------------16----14----------------16----------|
b|--------------------------------------------------|
A chord diagramG+G|--13-14-16-14-13----11----------------13----------|
A chord diagramD MajorD|--------------------------------------------------|
A chord diagramA augmentedA|--------------------------------------------------|
A chord diagramE MajorE|--------------------------------------------------|


Chorus 1: "All my life"

Rest for 8 bars


Verse 1:

    1  e  +  a  2  e  +  a  3  e  +  a  4  e  +  a
e|--------------16----14----------------------------|
b|--------14-15-------------------------------------|
A chord diagramG+G|-----14-------------------------------------------|
A chord diagramD MajorD|--16----------------------------------------------|
A chord diagramA augmentedA|--------------------------------------------------|
A chord diagramE MajorE|--------------------------------------------------|

    1  e  +  a  2  e  +  a  3  e  +  a  4  e  +  a
e|--------------14-16-17-16-14----------------------|
b|--------14-15-------------------15-14-15-14-15-14-|
A chord diagramG+G|-----14-------------------------------------------|
A chord diagramD MajorD|--16----------------------------------------------|
A chord diagramA augmentedA|--------------------------------------------------|
A chord diagramE MajorE|--------------------------------------------------|

    1  e  +  a  2  e  +  a  3  e  +  a  4  e  +  a
e|--------------------------------------------------|
b|--------------------------------------------------|
A chord diagramG+G|--15----14----------------------------------------|
A chord diagramD MajorD|--------------------------------------------------|
A chord diagramA augmentedA|--------------------------------------------------|
A chord diagramE MajorE|--------------------------------------------------|

    1  e  +  a  2  e  +  a  3  e  +  a  4  e  +  a
e|--------------16----14----------------16----------|
b|--------------------------------------------------|
A chord diagramG+G|--13-14-16-14-13----11----------------13----------|
A chord diagramD MajorD|--------------------------------------------------|
A chord diagramA augmentedA|--------------------------------------------------|
A chord diagramE MajorE|--------------------------------------------------|

    1  e  +  a  2  e  +  a  3  e  +  a  4  e  +  a
e|--------------16----14----------------------------|
b|--------14-15-------------------------------------|
A chord diagramG+G|-----14-------------------------------------------|
A chord diagramD MajorD|--16----------------------------------------------|
A chord diagramA augmentedA|--------------------------------------------------|
A chord diagramE MajorE|--------------------------------------------------|

    1  e  +  a  2  e  +  a  3  e  +  a  4  e  +  a
e|--------------14-16-17-16-14----------------------|
b|--------14-15-------------------15-14-15-14-15-14-|
A chord diagramG+G|-----14-------------------------------------------|
A chord diagramD MajorD|--16----------------------------------------------|
A chord diagramA augmentedA|--------------------------------------------------|
A chord diagramE MajorE|--------------------------------------------------|

    1  e  +  a  2  e  +  a  3  e  +  a  4  e  +  a
e|--------------------------------------------------|
b|--------------------------------------------------|
A chord diagramG+G|--15----14----------------------------------------|
A chord diagramD MajorD|--------------------------------------------------|
A chord diagramA augmentedA|--------------------------------------------------|
A chord diagramE MajorE|--------------------------------------------------|

    1  e  +  a  2  e  +  a  3  e  +  a  4  e  +  a
e|--------------16----14----------------16----------|
b|--------------------------------------------------|
A chord diagramG+G|--13-14-16-14-13----11----------------13----------|
A chord diagramD MajorD|--------------------------------------------------|
A chord diagramA augmentedA|--------------------------------------------------|
A chord diagramE MajorE|--------------------------------------------------|


Verse 2:

    1  e  +  a  2  e  +  a  3  e  +  a  4  e  +  a
e|-16\14-----14\2---------2/14-------14\2-----------|
b|--------------------------------------------------|
A chord diagramG+G|--------------------------------------------------|
A chord diagramD MajorD|--------------------------------------------------|
A chord diagramA augmentedA|--------------------------------------------------|
A chord diagramE MajorE|--------------------------------------------------|

    1  e  +  a  2  e  +  a  3  e  +  a  4  e  +  a
e|-2/12------12\5---------5/12-------12\7-----------|
b|--------------------------------------------------|
A chord diagramG+G|--------------------------------------------------|
A chord diagramD MajorD|--------------------------------------------------|
A chord diagramA augmentedA|--------------------------------------------------|
A chord diagramE MajorE|--------------------------------------------------|

    1  e  +  a  2  e  +  a  3  e  +  a  4  e  +  a
e|-7/14------14\2---------2/14-------14/2-----------|
b|--------------------------------------------------|
A chord diagramG+G|--------------------------------------------------|
A chord diagramD MajorD|--------------------------------------------------|
A chord diagramA augmentedA|--------------------------------------------------|
A chord diagramE MajorE|--------------------------------------------------|

    1  e  +  a  2  e  +  a  3  e  +  a  4  e  +  a
e|------------7\5---------5/12-------12\5-----------|
b|--------------------------------------------------|
A chord diagramG+G|--------------------------------------------------|
A chord diagramD MajorD|--------------------------------------------------|
A chord diagramA augmentedA|--------------------------------------------------|
A chord diagramE MajorE|--------------------------------------------------|

    1  e  +  a  2  e  +  a  3  e  +  a  4  e  +  a
e|--14\-------------------2/14----------------------|
b|--------------------------------------------------|
A chord diagramG+G|--------------------------------------------------|
A chord diagramD MajorD|--------------------------------------------------|
A chord diagramA augmentedA|--------------------------------------------------|
A chord diagramE MajorE|--------------------------------------------------|

    1  e  +  a  2  e  +  a  3  e  +  a  4  e  +  a
e|-5/12-------------------5/12----------------------|
b|--------------------------------------------------|
A chord diagramG+G|--------------------------------------------------|
A chord diagramD MajorD|--------------------------------------------------|
A chord diagramA augmentedA|--------------------------------------------------|
A chord diagramE MajorE|--------------------------------------------------|

    1  e  +  a  2  e  +  a  3  e  +  a  4  e  +  a
e|-2/14---------------------------------------------|
b|--------------------------------------------------|
A chord diagramG+G|--------------------------------------------------|
A chord diagramD MajorD|--------------------------------------------------|
A chord diagramA augmentedA|--------------------------------------------------|
A chord diagramE MajorE|--------------------------------------------------|

Rest for one bar


Chorus 2: "All my life... I'm at the stakin' bar"

    1  e  +  a  2  e  +  a  3  e  +  a  4  e  +  a
e|--------------14----17----14----------------------|
b|-----------14-------------------------14----------|
A chord diagramG+G|--------14----------------------------------------|
A chord diagramD MajorD|--16----------------------------------------------|
A chord diagramA augmentedA|--------------------------------------------------|
A chord diagramE MajorE|--------------------------------------------------|

    1  e  +  a  2  e  +  a  3  e  +  a  4  e  +  a
e|--------------------------------------14----16----|
b|--15----------------------17----------------------|
A chord diagramG+G|--------------------------------------------------|
A chord diagramD MajorD|--------------------------------------------------|
A chord diagramA augmentedA|--------------------------------------------------|
A chord diagramE MajorE|--------------------------------------------------|

    1  e  +  a  2  e  +  a  3  e  +  a  4  e  +  a
e|--------------14----17----14----------------------|
b|-----------14-------------------------14----------|
A chord diagramG+G|--------14----------------------------------------|
A chord diagramD MajorD|--16----------------------------------------------|
A chord diagramA augmentedA|--------------------------------------------------|
A chord diagramE MajorE|--------------------------------------------------|

    1  e  +  a  2  e  +  a  3  e  +  a  4  e  +  a
e|--------------------------------------14----16----|
b|--15----------------------17----------------------|
A chord diagramG+G|--------------------------------------------------|
A chord diagramD MajorD|--------------------------------------------------|
A chord diagramA augmentedA|--------------------------------------------------|
A chord diagramE MajorE|--------------------------------------------------|

    1  e  +  a  2  e  +  a  3  e  +  a  4  e  +  a
e|--------------14----17----14----------------------|
b|-----------14-------------------------14----------|
A chord diagramG+G|--------14----------------------------------------|
A chord diagramD MajorD|--16----------------------------------------------|
A chord diagramA augmentedA|--------------------------------------------------|
A chord diagramE MajorE|--------------------------------------------------|

    1  e  +  a  2  e  +  a  3  e  +  a  4  e  +  a
e|--------------------------------------------14----|
b|--15----------------------------------17----------|
A chord diagramG+G|--------------------------------------------------|
A chord diagramD MajorD|--------------------------------------------------|
A chord diagramA augmentedA|--------------------------------------------------|
A chord diagramE MajorE|--------------------------------------------------|

    1  e  +  a  2  e  +  a  3  e  +  a  4  e  +  a
e|--------------14----19----17----------16----------|
b|-----------14-------------------------------------|
A chord diagramG+G|--------14----------------------------------------|
A chord diagramD MajorD|--16----------------------------------------------|
A chord diagramA augmentedA|--------------------------------------------------|
A chord diagramE MajorE|--------------------------------------------------|

    1  e  +  a  2  e  +  a  3  e  +  a  4  e  +  a
e|--14----------------------------------------------|
b|--------------------------------------------------|
A chord diagramG+G|--------------------------------------------------|
A chord diagramD MajorD|--------------------------------------------------|
A chord diagramA augmentedA|--------------------------------------------------|
A chord diagramE MajorE|--------------------------------------------------|


Interlude: Choral vocals enter

    1  e  +  a  2  e  +  a  3  e  +  a  4  e  +  a
e|--------------16----14----------------------------|
b|--------14-15-------------------------------------|
A chord diagramG+G|-----14-------------------------------------------|
A chord diagramD MajorD|--16----------------------------------------------|
A chord diagramA augmentedA|--------------------------------------------------|
A chord diagramE MajorE|--------------------------------------------------|

    1  e  +  a  2  e  +  a  3  e  +  a  4  e  +  a
e|--------------14-16-17-16-14----------------------|
b|--------14-15-------------------15-14-15-14-15-14-|
A chord diagramG+G|-----14-------------------------------------------|
A chord diagramD MajorD|--16----------------------------------------------|
A chord diagramA augmentedA|--------------------------------------------------|
A chord diagramE MajorE|--------------------------------------------------|

    1  e  +  a  2  e  +  a  3  e  +  a  4  e  +  a
e|--------------------------------------------------|
b|--------------------------------------------------|
A chord diagramG+G|--15----14----------------------------------------|
A chord diagramD MajorD|--------------------------------------------------|
A chord diagramA augmentedA|--------------------------------------------------|
A chord diagramE MajorE|--------------------------------------------------|

    1  e  +  a  2  e  +  a  3  e  +  a  4  e  +  a
e|--------------16----14----------------16----------|
b|--------------------------------------------------|
A chord diagramG+G|--13-14-16-14-13----11----------------13----------|
A chord diagramD MajorD|--------------------------------------------------|
A chord diagramA augmentedA|--------------------------------------------------|
A chord diagramE MajorE|--------------------------------------------------|


Verse 3: "With the holograms"

Rest for 8 bars


Chorus 3: "All my life... I'm at the stakin' bar"

    1  e  +  a  2  e  +  a  3  e  +  a  4  e  +  a
e|--------------14----17----14----------------------|
b|-----------14-------------------------14----------|
A chord diagramG+G|--------14----------------------------------------|
A chord diagramD MajorD|--16----------------------------------------------|
A chord diagramA augmentedA|--------------------------------------------------|
A chord diagramE MajorE|--------------------------------------------------|

    1  e  +  a  2  e  +  a  3  e  +  a  4  e  +  a
e|--------------------------------------14----16----|
b|--15----------------------17----------------------|
A chord diagramG+G|--------------------------------------------------|
A chord diagramD MajorD|--------------------------------------------------|
A chord diagramA augmentedA|--------------------------------------------------|
A chord diagramE MajorE|--------------------------------------------------|

    1  e  +  a  2  e  +  a  3  e  +  a  4  e  +  a
e|--------------14----17----14----------------------|
b|-----------14-------------------------14----------|
A chord diagramG+G|--------14----------------------------------------|
A chord diagramD MajorD|--16----------------------------------------------|
A chord diagramA augmentedA|--------------------------------------------------|
A chord diagramE MajorE|--------------------------------------------------|

    1  e  +  a  2  e  +  a  3  e  +  a  4  e  +  a
e|--------------------------------------14----16----|
b|--15----------------------17----------------------|
A chord diagramG+G|--------------------------------------------------|
A chord diagramD MajorD|--------------------------------------------------|
A chord diagramA augmentedA|--------------------------------------------------|
A chord diagramE MajorE|--------------------------------------------------|

    1  e  +  a  2  e  +  a  3  e  +  a  4  e  +  a
e|--------------14----17----14----------------------|
b|-----------14-------------------------14----------|
A chord diagramG+G|--------14----------------------------------------|
A chord diagramD MajorD|--16----------------------------------------------|
A chord diagramA augmentedA|--------------------------------------------------|
A chord diagramE MajorE|--------------------------------------------------|

    1  e  +  a  2  e  +  a  3  e  +  a  4  e  +  a
e|--------------------------------------------14----|
b|--15----------------------------------17----------|
A chord diagramG+G|--------------------------------------------------|
A chord diagramD MajorD|--------------------------------------------------|
A chord diagramA augmentedA|--------------------------------------------------|
A chord diagramE MajorE|--------------------------------------------------|

    1  e  +  a  2  e  +  a  3  e  +  a  4  e  +  a
e|--------------14----19----17----------16----------|
b|-----------14-------------------------------------|
A chord diagramG+G|--------14----------------------------------------|
A chord diagramD MajorD|--16----------------------------------------------|
A chord diagramA augmentedA|--------------------------------------------------|
A chord diagramE MajorE|--------------------------------------------------|

    1  e  +  a  2  e  +  a  3  e  +  a  4  e  +  a
e|--14----------------------------------------------|
b|--------------------------------------------------|
A chord diagramG+G|--------------------------------------------------|
A chord diagramD MajorD|--------------------------------------------------|
A chord diagramA augmentedA|--------------------------------------------------|
A chord diagramE MajorE|--------------------------------------------------|

Other versions of Saturnz Barz

Saturnz barzChords
Saturnz barz (spirit house) (feat popcaan)Chords
Saturnz barz acousticChords

Almost there ...

Sign in to get your own page with links to favourite songs and more. You are just one click away...

Login with Facebook Login with Google