Log in

One click and you are in

Login with Facebook Login with Google

Why sign up and log in

Guitar Tabs Explorer
Gorillaz bass tabs for Ghost train

Bass tabs

  • Difficulty: Intermediate
Tuning: Standard (E A D G)


Intro:
No bass until he sings "She" (if you listen to the song you will hear a heavy distortion sound)
Verse 1:
G|--------|----------------|
D|--------|-0.-0.-0.-0.----|
A|-0-h2-2-|----------------|
E|--------|----------------| x10

Interlude 1:
G|-2-h4-4---|-7.-7.-7.-7.--|
D|----------|--------------|
A|----------|--------------|
E|----------|--------------| x2


Verse 2:
G|--------|----------------|
D|--------|-0.-0.-0.-0.----|
A|-0-h2-2-|----------------|
E|--------|----------------| x8

Interlude 2:
G|-2-h4-4---|-7.-7.-7.-7.--|
D|----------|--------------|
A|----------|--------------|
E|----------|--------------| x2


Chorus 1:
G|--------|-------------------|
D|--------|----0.-0.-0.-0.----|
A|-0-h2-2-|-2-----------------|
E|--------|-------------------|

G|--------|----------------|
D|--------|--0.-0.---------|
A|-0-h2-2-|-2--------------|
E|--------|--------1.-1.---| (Repeat this all 4 times)

Short Interlude 1:
No bass

Verse 3:
G|--------|----------------|
D|--------|-0.-0.-0.-0.----|
A|-0-h2-2-|----------------|
E|--------|----------------| x10

Short Interlude 2:
No bass

Deep Voice:
G|--------|-------------------|
D|--------|----0.-0.-0.-0.----|
A|-0-h2-2-|-2-----------------|
E|--------|-------------------|

G|--------|----------------|
D|--------|--0.-0.---------|
A|-0-h2-2-|-2--------------|
E|--------|--------1.-1.---| (Repeat this until you hear the guitar coming, six times)

Guitar Building Up:
No bass


Outro:
G|--------|----------------|--------|
D|--------|-0.-0.-0.-0.----|--------|
A|-0-h2-2-|----------------|-0-h2-2-|
E|--------|----------------|--------| x3


************************************

| h Hammer-on
| . Staccato

************************************

Almost there ...

Sign in to get your own page with links to favourite songs and more. You are just one click away...

Login with Facebook Login with Google