Log in

One click and you are in

Login with Facebook Login with Google

Why sign up and log in

Guitar Tabs Explorer
Gorillaz bass tabs for Baby queen

Bass tabs

🎸 Intro:
 0:04 seconds

G|--------------------------------------|
D|----2--3---2--3---2--3---2--3---------|
A|--------------------------------------|
E|------------------------------3-------|

G|--------------------------------------|
D|--------------------------------------|
A|-----0-3---5------0-3---5-------------|
E|---3------------3----------3--3-------| X3


“Down in the abyss where the night…”

G|--------------------------------------|
D|----2--3---2--3---2--3---2--3---------|
A|--------------------------------3-----|
E|--------------------------------------|

G|--------------------------------------|
D|--------------------------------------|
A|-----0-3---5------0-3---5-------------|
E|---3------------3----------3--3-------|

“She kept me in a polaroid…”

G|--------------------------------------|
D|----2--3---2--3---2--3---2--3---------|
A|--------------------------------------|
E|------------------------------3-------|

G|--------------------------------------|
D|--------------------------------------|
A|-----0-3---5------0-3---5-------------|
E|---3------------3----------3--3-------|

“Under Garuda’s mirror light…”

G|--------------------------------------|
D|----2--3---2--3---2--3---2--3---------|
A|--------------------------------3-----|
E|--------------------------------------|

G|--------------------------------------|
D|--------------------------------------|
A|-----0-3---5------0-3---5-------------|
E|---3------------3----------3----------|
“You’ve grown up…” 🎸 Chorus:

G|--------------------------------------|
D|----2--3---2--3---2--3---2--3---------|
A|--------------------------------3-----|
E|--------------------------------------|

G|--------------------------------------|
D|--------------------------------------|
A|-----0-3---5------0-3---5-------------|
E|---3------------3----------3---3--1---| X2

“She fell into the generals…” 🎸 Verse 2:

G|--------------------------------------|
D|----2--3---2--3---2--3---2--3---------|
A|--------------------------------------|
E|------------------------------3-------|

G|--------------------------------------|
D|--------------------------------------|
A|-----0-3---5------0-3---5-------------|
E|---3------------3----------3--3-------|

“I fell into the vanity…”

G|--------------------------------------|
D|----2--3---2--3---2--3---2--3---------|
A|--------------------------------3-----|
E|--------------------------------------|

G|--------------------------------------|
D|--------------------------------------|
A|-----0-3---5------0-3---5-------------|
E|---3------------3----------3--3-------|

“You’ve grown up…” 🎸 Bridge:
**from 1:59 through 2:10 don’t play anything**

G|--------------------------------------|
D|--------------------------------------|
A|--------------------------------------|
E|--------3----3-1----------------------|

**rest again from 2:12 through 2:25**

Play this through until the end of the song!

G|--------------------------------------|
D|----2--3---2--3---2--3---2--3---------|
A|--------------------------------3-----|
E|--------------------------------------|

G|--------------------------------------|
D|--------------------------------------|
A|-----0-3---5------0-3---5-------------|
E|---3------------3----------3---3--1---|
gorillaz baby queen music video
ⓘ Bass guitar tab for 'Baby Queen' by Gorillaz, an alternative rock band formed in 1999 from London, England. Gorillaz is known for their smooth rock/pop music.

Almost there ...

Sign in to get your own page with links to favourite songs and more. You are just one click away...

Login with Facebook Login with Google