Log in

One click and you are in

Login with Facebook Login with Google

Why sign up and log in

Guitar Tabs Explorer
Good Charlotte tabs for S.o.s

Guitar tabs

Good Charlotte's S.O.S.
Tabbed out by: Seanster1000


Intro (acoustic)

    A chord diagramE minorEm on 5   A chord diagramFF      A chord diagramA augmentedA on 3
e--|5---------1------3---------|
B--|5---------1------5---------|
G--|5---------2------5---------|
D--|7---------3------5---------|  x4
A--|7---------3------3---------|
E--|5---------1------3---------|

verse (distorted) x3

e--|--------|--------|--------|--------|--------|
B--|--------|--------|--------|--------|--------|
G--|--------|--------|--------|--------|--------|
D--|--------|--------|--------|--------|--------|
A--|-3222222|-3333335|-5555555|-5555557|-7777777|
E--|-1111111|-1111113|-3333333|-3333335|-5555555|

|--------|-----------------------|------------------------|
|--------|-----------------------|------------------------|
|--------|-----------------------|------------------------|
|--------|-----------------------|------------------------|
|-7777777|10 10 10 10 10 10 10 10| 10 10 10 10 10 10 10 10|
|-5555555|8  8  8  8  8  8  8  8 | 7  7  7  7  7  7  7  7 |


Chorus

     Intro riff x4

Verse (distorted) x3


Chorus


Bridge (disorted)

e--|--------|--------|--------|--------|--------|
B--|--------|--------|--------|--------|--------|
G--|----x2--|----x2--|----x2--|----x2--|----x2--|
D--|--------|--------|--------|--------|--------|
A--|55555555|77777777|55555555|33333333|22222222|
E--|33333333|55555555|33333333|11111111|00000000|


|--------|--------|--------|--------|--------|
|--------|--------|--------|--------|--------|
|----x2--|----x2--|----x2--|----x2--|----x2--|
|--------|--------|--------|--------|--------|
|77777777|55555555|33333333|11111111|77777777|
|55555555|33333333|11111111|00000000|55555555|


|-----------------------|------------------------|
|-----------------------|------------------------|
|-----------------------|------------------------|
|-----------------------|------------------------|
|10 10 10 10 10 10 10 10| 10 10 10 10 10 10 10 10|
|8  8  8  8  8  8  8  8 | 7  7  7  7  7  7  7  7 |


Chorus x4 (solo section) (distorted)


Chorus x4 (clean) outro

Almost there ...

Sign in to get your own page with links to favourite songs and more. You are just one click away...

Login with Facebook Login with Google