Log in

One click and you are in

Login with Facebook Login with Google

Why sign up and log in

Guitar Tabs Explorer
Good Charlotte tabs for I want candy

Guitar tabs

Hey these are the bar chords quite easy 2 for the whole song
Damn Accurate too
M@
Intro and same for chorus

e--------------------------------------------------------------------|
b--------------------------------------------------------------------|
g---7-7-7-7---5-7----------------------------------------------------|
d---8-8-8-8---6-8----------------------------------------------------|
a---8-8-8-8---6-8----------------------------------------------------|
e---6-6-6-6---4-6----------------------------------------------------|


Verse

i know a girl who's tough but sweet.......(same for each line of Verse)
e------------------------------------------------------|
b------------------------------------------------------|
g--------------------------------7-7-7-7---5-7---------|
d--------------------------------8-8-8-8---6-8---------|
a--------------------------------8-8-8-8---6-8---------|
e--------------------------------6-6-6-6---4-6---------|


Chorus

I         want  candy
e--------------------------------|
b--------------------------------|
g---7-7-7-7---5-7--7-7-7-7---5-7-|
d---8-8-8-8---6-8--8-8-8-8---6-8-|
a---8-8-8-8---6-8--8-8-8-8---6-8-|
e---6-6-6-6---4-6--6-6-6-6---4-6-|

Almost there ...

Sign in to get your own page with links to favourite songs and more. You are just one click away...

Login with Facebook Login with Google