Guitar Tabs Explorer
Goo Goo Dolls bass tabs for So outta line

So Outta Line bass tab


5 / 5 [1 vote]


CaughtinthestormAuthor: Caughtinthestorm

So Outta Line bass tab by Goo Goo Dolls

"So Outta Line" is a track off of American rockers Goo Goo Dolls third album, "Hold Me Up". "So Outta Line" and the album was released in 1990.

Bass tabs

Print
  • Tuning: Standard tuning
  • Difficulty: Novice

Intro (x4)
G------------------------------------------------------------------
D--4h6-6--4h6--6--4h6--6--4h6--6---4---2---2-2-2---2-2-2------2----
A---------------------------------------------------------2h4------
E------------------------------------------------------------------

Verse (x2)
G-------------------------------------------
D--6-(x16)--2-(x16)-----6-(x16)--2-(x16)----
A-------------------------------------------
E-------------------------------------------

Chorus
G-------------------------------------------------------
D-------------------------------------------------------
A--2-(x8)--4-(x8)--0-(x16)---2-(x8)--4-(x8)--0-(x16)----
E-------------------------------------------------------

G--------------------------------------------------------------
D--------------------------------------------------------------
A--[2-(x4)--4-(x8)]-(x3)---0-(x16)---4-(x8)--2-(x8)--7-(x9)----
E--------------------------------------------------------------

*Repeat Intro (x2)
*Repeat Verse (x2)
*Repeat Chorus
*Repeat Intro (x4)
*Repeat Chorus (x2)

Outro
G-------------------------------------------------------------------------
D-------------------------------------------------------------------------
A-------------------------------------------------------------------------
E--2-(x8)--4-(x8)--5-(x16)--2-(x8)--4-(x8)--5-(x8)--7-(x8)----9--9--9-----

Comment this song and these bass tabs

Do you have corrections, comments on the bass tabs, thoughts about the song or a message to the author? Write them below.