Log in

One click and you are in

Login with Facebook Login with Google

Why sign up and log in

Guitar Tabs Explorer
Selena Gomez bass tabs for Shake it up

Bass tabs

Tuning: Standard (E A D G)

🎸 Intro: And Verses:

G|------------------------------------|
D|-------------0--0-0-0-0-------------|
A|------------------------------------|
E|--1-1---3-3-------------------------|

      Play It 6 Times


🎸 Chorus:

G|------------------------------------|
D|---------------3--0-0---------------|
A|-1-1--3-3--1-0--------3-0-----------|
E|------------------------------------|

G|------------------------------------|
D|---------------3--0-0---------------|
A|-1-1--3-3--1-0--------3-0-----------|
E|------------------------------------|

Then You Have It You Can Solo With The
Pentatonic Scale When Its The End 🧊🧊

Almost there ...

Sign in to get your own page with links to favourite songs and more. You are just one click away...

Login with Facebook Login with Google