Log in

One click and you are in

Login with Facebook Login with Google

Why sign up and log in

Guitar Tabs Explorer
Gomez bass tabs for Tijuana lady

Bass tabs

Gomez - Tijuana lady

this are the 5 main riffs


G-----------------------------------------------------------------------------|
D-----------------------------------------------------------------------------|
A----------------/7r-7h9------------------------------------------------------|
E-----------------------9r-7--------------------------------------------------|
G-----------------------------------------------------------------------------|
D--------------/9----/11------------------------------------------------------|
A---------------------------/7----/9------------------------------------------|
E-----------55----55-----22----22---------------------------------------------|


G-----------------------------------------------------------------------------|
D----------14-13-9--------11-9------------------------------------------------|
A--------7---------9/11--------11/-----/7-------------------------------------|
E-----------------------9----------/7-----------------------------------------|


G-----------------------------------------------------------------------------|
D---------7--6--5--3----------------------------------------------------------|
A-----------------------------------------------------------------------------|
E---------5--4--3--2--2h3-4-5-------------------------------------------------|


G-----------------------------------------------------------------------------|
D-----------------------------------------------------------------------------|
A-----------------------------------------------------------------------------|
E-----0-2-3-/12-10-9-7-5------------------------------------------------------|

Ps: did not check it yet but mayby someone else can update it.

↓ Add and view comments below ↓

What do you think about this song and these tabs?

Add your comments, questions, rant or a thumbs up below.

Almost there ...

Sign in to get your own page with links to favourite songs and more. You are just one click away...

Login with Facebook Login with Google