Log in

One click and you are in

Login with Facebook Login with Google

Why sign up and log in

Guitar Tabs Explorer
Goldfish bass tabs for Soundtracks and comebacks

Soundtracks And Comebacks bass tab - Goldfish

Goldfish bass tabs for Soundtracks and comebacks

Bass tabs

like muted notes in the A section and fills to the B section

Funky ass verse/intro

G|-------3-4p0---------3------5/6\5-3p0-----|
D|--3-5-------------------------------------|
A|---------------------1------3-------------|
E|3-----------------------------------------|

G|-------3-4p0---------3------(5)/12----------|
D|--3-5---------------------------------------|
A|---------------------1------3---------------|
E|3-------------------------------------------|

Basic outline to the Sax-dominated part

G|--------------------------------|
D|--------------------------------|
A|-----1~----3~---6~--------------|
E|--3~------------------------1-2-|

Basic outline to the ahh-ah-ah-ahh bit
G|--------------------------------|
D|--------------------------------|
A|-10~---10-8~---8-7~--7--6~--5-8-|
E|-----10------10-----8-----------|

Almost there ...

Sign in to get your own page with links to favourite songs and more. You are just one click away...

Login with Facebook Login with Google