Log in

One click and you are in

Login with Facebook Login with Google

Why sign up and log in

Guitar Tabs Explorer
Andrew Gold bass tabs for Spooky scary skeletons

Spooky Scary Skeletons bass tab by Andrew Gold

Andrew Gold bass tabs for Spooky scary skeletons

Bass tabs

Tuning: Standard (E A D G)

Difficulty: Novice


Tuning: EADG

G|---12-12---11-11-----------------12-12---11-11--------------------------------------------------|
D|------------------9--12--9---9-------------------9-8-7-6-5-4-3----------------------------------|
A|------------------------------------------------------------------------------------------------|
E|------------------------------------------------------------------------------------------------|


G|---12-12---11-11--------------------------------------------------------------------------------|
D|------------------9--12--9---9---12-14-11-12-9--------------------------------------------------|
A|------------------------------------------------------------------------------------------------|
E|------------------------------------------------------------------------------------------------|
Repeat as long as you want.

Almost there ...

Sign in to get your own page with links to favourite songs and more. You are just one click away...

Login with Facebook Login with Google