Log in

One click and you are in

Login with Facebook Login with Google

Why sign up and log in

Guitar Tabs Explorer
The Go-betweens bass tabs for Streets of your town

Streets Of Your Town bass tab by The Go-betweens

The Go-betweens bass tabs for Streets of your town

Bass tabs

Bass Start - 00:06


Intro:

G|--------------|-----------------|-----------------|-----------------|-----------------|
D|--8-----------|--8-8--6--6------|----8--6--6------|--8-8--6--6------|----8--6--6------|
A|--------10-8--|------------8-6--|--6---------8-6--|------------8-6--|--6---------8-6--|
E|----8-6-------|-----------------|-----------------|-----------------|-----------------|

Chorus:

G|-----------------|-----------------|-----------------|-----------------|
D|--8-8--6--6------|----8--6--6------|--8-8--6--6------|----8--6--6------|
A|------------8-6--|--6---------8-6--|------------8-6--|--6---------8-6--|
E|-----------------|-----------------|-----------------|-----------------|


G|-----------------|-----------------|-----------------|--------------------------|
D|--8-8--6--6------|----8--6--6------|--8-8--6--6------|----8--6-6-6-6-6-6-6-6-8--|
A|------------8-6--|--6---------8-6--|------------8-6--|--6-----------------------|
E|-----------------|-----------------|-----------------|--------------------------|


Verse 1:

G|----------------------------|-----------|---------------|
D|----------5-6-8---8-8-8--8--|--6---6-6--|----5----------|
A|--6-----8-------------------|-----------|--8----8--6----|
E|----------------------------|-----------|------------8--|

G|-----------------------------|-----------|---------------|
D|-----------5-6-8---8-8-8--8--|--6---6-6--|----5----------|
A|--6---6--8-------------------|-----------|--8----8--6----|
E|-----------------------------|-----------|------------8--|


G|-----------------------------|-----------|---------------|
D|-----------5-6-8---8-8-8--8--|--6---6-6--|----5----------|
A|--6---6--8-------------------|-----------|--8----8--6----|
E|-----------------------------|-----------|------------8--|


G|-----------------------------|-----------|-------------------|
D|-----------5-6-8---8-8-8--8--|--6---6-6--|-6-6-6--6-8-6------|
A|--6---6--8-------------------|-----------|--------------8-6--|
E|-----------------------------|-----------|-------------------|


Chorus:

G|-----------------|-----------------|-----------------|-----------------|
D|--8-8--6--6------|----8--6--6------|--8-8--6--6------|----8--6--6------|
A|------------8-6--|--6---------8-6--|------------8-6--|--6---------8-6--|
E|-----------------|-----------------|-----------------|-----------------|


G|-----------------|-----------------|-----------------|--------------------------|
D|--8-8--6--6------|----8--6--6------|--8-8--6--6------|----8--6-6-6-6-6-6-6-6-8--|
A|------------8-6--|--6---------8-6--|------------8-6--|--6-----------------------|
E|-----------------|-----------------|-----------------|--------------------------|


Verse 2:

G|-----------------------------|-----------|---------------|
D|-----------5-6-8---8-8-8--8--|--6---6-6--|----5----------|
A|--6---6--8-------------------|-----------|--8----8--6----|
E|-----------------------------|-----------|------------8--|


G|-----------------------------|-----------|---------------|
D|-----------5-6-8---8-8-8--8--|--6---6-6--|----5----------|
A|--6---6--8-------------------|-----------|--8----8--6----|
E|-----------------------------|-----------|------------8--|


G|-----------------------------|-----------|---------------|
D|-----------5-6-8---8-8-8--8--|--6---6-6--|----5----------|
A|--6---6--8-------------------|-----------|--8----8--6----|
E|-----------------------------|-----------|------------8--|


G|-----------------------------|-----------|-------------------|
D|-----------5-6-8---8-8-8--8--|--6---6-6--|-6-6-6--6-8-6------|
A|--6---6--8-------------------|-----------|--------------8-6--|
E|-----------------------------|-----------|-------------------|


Chorus:

G|-----------------|-----------------|-----------------|-----------------|
D|--8-8--6--6------|----8--6--6------|--8-8--6--6------|----8--6--6------|
A|------------8-6--|--6---------8-6--|------------8-6--|--6---------8-6--|
E|-----------------|-----------------|-----------------|-----------------|


G|-----------------|-----------------|-----------------|-----------------|
D|--8-8--6--6------|----8--6--6------|--8-8--6--6------|----8--6-6-6-6-8-|
A|------------8-6--|--6---------8-6--|------------8-6--|--6--------------|
E|-----------------|-----------------|-----------------|-----------------|


Bridge:

G|---------------|--------------|---------------|--------------|
D|--6----------6-|--------------|---------------|--------------|
A|---------------|--------------|---------------|-10--------10-|
E|---------------|-8-------8h11-|-11---------11-|--------------|


G|----------------|-----------------|----------------|-------------------|
D|----------------|-----------------|----------------|-------------------|
A|-11----------11-|-10----------10\-|-6------------\-|--x-3-3-3-3-3-3-3--|
E|----------------|-----------------|----------------|-------------------|


Instrumental:

G|----------------|-----------------|-----------------|-------------------| (x3)
D|----------------|-----------------|-----------------|-------------------|
A|--6-------------|--5------------5-|-6-3--3-3-3-3-3--|--3-3-3-3-3-3-3-5--|
E|----------------|-----------------|-----------------|-------------------|


G|----------------|----------------|-----------------|-------------------|
D|----------------|----------------|-----------------|-------------------|
A|--6----------6--|--5-----------5-|-6-3--3-3-3-3-3--|--3-3-3-3-3-3-3-3--|
E|----------------|----------------|-----------------|-------------------|


Chorus: (repeat until the end)

G|-----------------|-----------------|-----------------|-----------------|
D|--8-8--6--6------|----8--6--6------|--8-8--6--6------|----8--6--6------|
A|------------8-6--|--6---------8-6--|------------8-6--|--6---------8-6--|
E|-----------------|-----------------|-----------------|-----------------|


***************************

| \ : slide down
| h : hammer-on
| x : dead note

***************************

Almost there ...

Sign in to get your own page with links to favourite songs and more. You are just one click away...

Login with Facebook Login with Google