Log in

One click and you are in

Login with Facebook Login with Google

Why sign up and log in

Guitar Tabs Explorer
The Go-betweens bass tabs for Stones for you

Bass tabs

(Bass Start 00:12)


Intro:
G|----------|
D|----------|
A|-(3------2|
E|----3)-5--|

G|---------|---------|---------|--------------|
D|---------|---------|---------|--------------|
A|-3-------|-3-------|-3-------|-3---(3------2|
E|-----3--3|-----3--3|-----3--3|--------3)-5--|
Verse 1:
G|---------|---------|---------|--------------|
D|---------|---------|---------|--------------|
A|-3-------|-3-------|-3-------|-3---(3------2|
E|-----3--3|-----3--3|-----3--3|--------3)-5--|

G|---------|---------|---------|--------------|
D|---------|---------|---------|-------------2|
A|-3-------|-3-------|-3-------|-3---(5-3)-5--|
E|-----3--3|-----3--3|-----3--3|--------------|


Chorus:
G|-----5-5-5|-----5-5-5|-----5-5-5|--------------|
D|-3--------|-3--------|-3--------|-------------2|
A|----------|----------|----------|-3---(5-3)-5--|
E|----------|----------|----------|--------------|

G|-----5-5-5|-----5-5-5|-----5-5-5|--------------|
D|-3--------|-3--------|-3--------|--------------|
A|----------|----------|----------|-3---(3------2|
E|----------|----------|----------|--------3)-5--|

Interlude:
G|---------|---------|---------|--------------|
D|---------|---------|---------|--------------|
A|-3-------|-3-------|-3-------|-3---(3------2|
E|-----3--3|-----3--3|-----3--3|--------3)-5--|

Verse 2:
G|---------|---------|---------|--------------|
D|---------|---------|---------|--------------|
A|-3-------|-3-------|-3-------|-3---(3------2|
E|-----3--3|-----3--3|-----3--3|--------3)-5--|

G|---------|---------|---------|--------------|
D|---------|---------|---------|-------------2|
A|-3-------|-3-------|-3-------|-3---(5-3)-5--|
E|-----3--3|-----3--3|-----3--3|--------------|


Chorus:
G|-----5-5-5|-----5-5-5|-----5-5-5|--------------|
D|-3--------|-3--------|-3--------|-------------2|
A|----------|----------|----------|-3---(5-3)-5--|
E|----------|----------|----------|--------------|

G|-----5-5-5|-----5-5-5|-----5-5-5|--------------|
D|-3--------|-3--------|-3--------|--------------|
A|----------|----------|----------|-3---(3------2|
E|----------|----------|----------|--------3)-5--|

Interlude:
G|---------|--------|--------|--------------|
D|---------|--------|--------|--------------|
A|-3-------|--------|--------|-3---(3------2|
E|-----3--3|----3--3|----3--3|--------3)-5--|


Verse 3:
G|---------|---------|---------|--------------|
D|---------|---------|---------|--------------|
A|-3-------|-3-------|-3-------|-3---(3------2|
E|-----3--3|-----3--3|-----3--3|--------3)-5--|

G|---------|---------|---------|--------------|
D|---------|---------|---------|-------------2|
A|-3-------|-3-------|-3-------|-3---(5-3)-5--|
E|-----3--3|-----3--3|-----3--3|--------------|


Chorus:
G|-----5-5-5|-----5-5-5|-----5-5-5|--------------| (x2)
D|-3--------|-3--------|-3--------|-------------2|
A|----------|----------|----------|-3---(5-3)-5--|
E|----------|----------|----------|--------------|


Outro:
G|-----5-5-5|-----5-5-5|----------|
D|-3--------|-3--------|-3--------|
A|----------|----------|----------|
E|----------|----------|----------|


*******************

| () fast

Almost there ...

Sign in to get your own page with links to favourite songs and more. You are just one click away...

Login with Facebook Login with Google