Log in

One click and you are in

Login with Facebook Login with Google

Why sign up and log in

Guitar Tabs Explorer
The Go-betweens bass tabs for Five words

Bass tabs

[Intro]
G|---------------|---------------|---------------|----------| (x2)
D|---------------|---------------|---------------|----------|
A|-----------2---|-----------2---|-4----2----0---|-2----4---|
E|-2----4--------|-2----4--------|---------------|----------|
[Verse 1]
G|---------------|---------------|---------------|----------| (x9)
D|---------------|---------------|---------------|----------|
A|-----------2---|-----------2---|-4----2----0---|-2----4---|
E|-2----4--------|-2----4--------|---------------|----------|


[Chorus]
G|-------------|----------|------------|---------|
D|-------------|----------|------------|---------|
A|-4--2--------|-4--------|-6--4-------|---7--7--|
E|-------2-----|----4-----|------------|-0-------|

G|----------|----------|------------|-------------|
D|----------|----------|------------|-------------|
A|-2--------|-4--------|-6--4-------|---7--7------|
E|----2-----|----4-----|------------|-0------0----|

G|---------------------|---------------------|---------------------|---------------|
D|-7----6----4----2--4-|-2----4----2----4--6-|-7----6----4----2--4-|---------------|
A|---------------------|---------------------|---------------------|-0----2----4---|
E|---------------------|---------------------|---------------------|---------------|


[Verse 2]
G|---------------|---------------|---------------|----------| (x6)
D|---------------|---------------|---------------|----------|
A|-----------2---|-----------2---|-4----2----0---|-2----4---|
E|-2----4--------|-2----4--------|---------------|----------|


[Outro]
G|---------------| (repeat until the end)
D|---------------|
A|-0----2----4---|

Almost there ...

Sign in to get your own page with links to favourite songs and more. You are just one click away...

Login with Facebook Login with Google