Log in

One click and you are in

Login with Facebook Login with Google

Why sign up and log in

Guitar Tabs Explorer
Giveon bass tabs for Like i want you

Bass tabs

Tuning: Standard (E A D G)


Intro:

G|---------------------------------------------------------------------------|
D|---------------------------------------------------------------------------|
A|---------------------------------------------------------------------------|
E|---------------------------------------------------------------------------|

G|---------------------------------------------------------------------------|
D|---------------------6-------------------------8-------------8--8----8-----|
A|----4-4----------------6--7--8---------------8-------------------------8---|
E|-------------------------------------------------------------------------9-|

Verse 1: - "Sometimes I wish you knew..."

G|---------------------------------------------------------------------------|
D|-----------6-------------------------11--10--8-----------------------------|
A|-------------6--7--8-----------------------------------8-----8-------------|
E|--------------------------------------------------------------------9------|

"Does your mind..."

G|---------------------------------------------------------------------------|
D|------------6--------------------------8-------------------8-8---8---------|
A|--4------------6--7--8-------------8---------------------------------------|
E|---------------------------------------------------------------------------|


Pre-Chorus: - "See you face to face..."

G|---------------------------------------------------------------------------|
D|--------6--------------------------8-----------------8---8---------8-------|
A|-6--------6--7-8----8------------8-----------------------------------8-----|
E|------------------------------------------------------------------------9--|

G|---------------------------------------------------------------------------|
D|--------6--------------------------8-----------------8---8---------8-------|
A|-6--------6--7-8----8------------8-----------------------------------8-----|
E|------------------------------------------------------------------------9--|


Chorus: - "Like I want You"

G|---------------------------------------------------------------------------|
D|---------------------6-------------------------8-------------8--8----8-----|
A|-4--------------------6--7--8---------------8-------------------------8----|
E|-------------------------------------------------------------------------9-|

G|---------------------------------------------------------------------------|
D|---------------------6-------------------------8-------------8--8----8-----|
A|----4-4----------------6--7--8---------------8-------------------------8---|
E|-------------------------------------------------------------------------9-|


Verse 2: - "I guess it's overdue"

G|---------------------------------------------------------------------------|
D|-----------6-------------------------11--10--8-----------------------------|
A|-------------6--7--8-----------------------------------8-----8-------------|
E|--------------------------------------------------------------------9------|

"A table set for two"

G|---------------------------------------------------------------------------|
D|------------6--------------------------8-------------------8-8---8---------|
A|--4------------6--7--8-------------8---------------------------------------|
E|---------------------------------------------------------------------------|


Pre-Chorus: - "See you face to face..."

G|---------------------------------------------------------------------------|
D|--------6--------------------------8-----------------8---8---------8-------|
A|-6--------6--7-8----8------------8-----------------------------------8-----|
E|------------------------------------------------------------------------9--|

G|---------------------------------------------------------------------------|
D|--------6--------------------------8-----------------8---8---------8-------|
A|-6--------6--7-8----8------------8-----------------------------------8-----|
E|------------------------------------------------------------------------9--|


Chorus: - "Like I want You"

G|---------------------------------------------------------------------------|
D|---------------------6-------------------------8-------------8--8----8-----|
A|-4--------------------6--7--8---------------8-------------------------8----|
E|-------------------------------------------------------------------------9-|

G|---------------------------------------------------------------------------|
D|---------------------6-------------------------8-------------8--8----8-----|
A|----4-4----------------6--7--8---------------8-------------------------8---|
E|-------------------------------------------------------------------------9-|


Bridge:

G|---------------------------------------------------------------------------|
D|--------6--------------------------8-----------------8---8---------8-------|
A|-6--------6--7-8----8------------8-----------------------------------8-----|
E|------------------------------------------------------------------------9--|

G|---------------------------------------------------------------------------|
D|--------6--------------------------8-----------------8---8---------8-------|
A|-6--------6--7-8----8------------8-----------------------------------8-----|
E|------------------------------------------------------------------------9--|


Chorus: - "Like I want You"

G|---------------------------------------------------------------------------|
D|---------------------6-------------------------8-------------8--8----8-----|
A|-4--------------------6--7--8---------------8-------------------------8----|
E|-------------------------------------------------------------------------9-|

G|---------------------------------------------------------------------------|
D|---------------------6-------------------------8-------------8--8----8-----|
A|----4-4----------------6--7--8---------------8-------------------------8---|
E|-------------------------------------------------------------------------9-|

Almost there ...

Sign in to get your own page with links to favourite songs and more. You are just one click away...

Login with Facebook Login with Google