Log in

One click and you are in

Login with Facebook Login with Google

Why sign up and log in

Guitar Tabs Explorer
Giveon bass tabs for Garden kisses

Bass tabs

Tuning: Standard (E A D G)


Intro:

G|---------------|-------------|---------------|----------------|
D|----------/14\-|--------/14\-|------/10\-----|---------/10\---|
A|----5--8-------|5--8---------|5--8-----------|5--8------------|
E|---------------|-------------|---------------|----------------|

G|---------------|-------------|---------------|---------7------|
D|----------/14\-|--------/14\-|------/10\-----|-----7----------|
A|----5--8-------|5--8---------|5--8-----------|5---------------|
E|---------------|-------------|---------------|Let it ring-----|
Verse:

G|---------------|-------------|---------------|----------------|
D|----------/14\-|--------/14\-|------/10\-----|---------/10\---|
A|----5--8-------|5--8---------|5--8-----------|5--8------------|
E|---------------|-------------|---------------|----------------| x3

G|---------------|-------------|-------------10|---------7------|
D|----------/14\-|------14h15\-|------/10-/12--|-----7----------|
A|----5--8-------|5--8---------|5--8-----------|5---------------|
E|---------------|-------------|---------------|Let it ring-----|


Pre Chorus:

G|---------------|-------------|---------------|----------------|
D|----------/14\-|--------/14\-|------/10\-----|---------/10\---|
A|----5--8-------|5--8---------|5--8-----------|5--8------------|
E|---------------|-------------|---------------|----------------| x2


Chorus: - Repeat the whole section twice

G|---------------|-------------|---------------|----------------|
D|----------/14\-|--------/14\-|------/10\-----|---------/10\---|
A|----5--8-------|5--8---------|5--8-----------|5--8------------|
E|---------------|-------------|---------------|----------------|

G|---------------|-------------|---------------|---------7------|
D|----------/14\-|--------/14\-|------/10\-----|-----7----------|
A|----5--8-------|5--8---------|5--8-----------|5---------------|
E|---------------|-------------|---------------|Let it ring-----|


Verse 2:

G|---------------|----------------|---------------|-------------|
D|----------/14\-|----/14------10-|------/10\-----|-------/10\--|
A|----5--8-------|5--8----/12-----|5--8-----------|5--8---------|
E|---------------|----------------|---------------|-------------| x3

G|---------------|----------------|---------------|---------7---|
D|----------/14\-|--------/14\----|------/10\-----|-----7-------|
A|----5--8-------|5--8------------|5--8-----------|5------------|
E|---------------|----------------|---------------|Let it ring--|


Pre Chorus:

G|---------------|-------------|---------------|----------------|
D|----------/14\-|--------/14\-|------/10\-----|---------/10\---|
A|----5--8-------|5--8---------|5--8-----------|5--8------------|
E|---------------|-------------|---------------|----------------|

G|---------------|-------------|---------------|---------7------|
D|----------/14\-|------14h15\-|------/10\-----|-----7----------|
A|----5--8-------|5--8---------|5--8-----------|5---------------|
E|---------------|-------------|---------------|Let it ring-----|


Chorus:

G|---------------|-------------|---------------|----------------|
D|----------/14\-|--------/14\-|------/10\-----|---------/10\---|
A|----5--8-------|5--8---------|5--8-----------|5--8------------|
E|---------------|-------------|---------------|----------------|

G|---------------|-------------|---------------|---------7------|
D|----------/14\-|--------/14\-|------/10\-----|-----7----------|
A|----5--8-------|5--8---------|5--8-----------|5---------------|
E|---------------|-------------|---------------|Let it ring-----|


Outro:

G|---------------|-------------|---------------|----------------|
D|----------/14\-|--------/14\-|------/10\-----|---------/10\---|
A|----5--8-------|5--8---------|5--8-----------|5--8------------|
E|---------------|-------------|---------------|----------------| x4


************************************

| / Slide up
| \ Slide down
| h Hammer-on
| Let it ring

************************************

Almost there ...

Sign in to get your own page with links to favourite songs and more. You are just one click away...

Login with Facebook Login with Google