Log in

One click and you are in

Login with Facebook Login with Google

Why sign up and log in

Guitar Tabs Explorer
Dizzy Gillespie bass tabs for A night in tunisia

A Night In Tunisia bass tab by Dizzy Gillespie

Dizzy Gillespie bass tabs for A night in tunisia

Bass tabs

gillespie_dizzy_a_night_in_tunisia

Basstab by Jan Bjorklund, Finland
<jani_bjorklund@yahoo.se>
You are welcome to request for basstabs!
Fingering and positions as suggested by TablEdit,
please use common sense!

TablEdited by Jan Bjorklund

Tuning : E A D G 	Time Signature: 4/4

 |               |               |               |

|--------------------6-----------8-------6-----------------------|
|--------8-------------------------------------------8-----------|
|6---------------------------------------------------------------|
|----------------------------------------------------------------|

 |               |               |               |

|--------------------2-----------4-------2-----------------------|
|--------3-------------------------------------------3-----------|
|5---------------------------------------------------------------|
|----------------------------------------------------------------|

 |               |               |               |

|--------------------6-----------8-------6-----------------------|
|--------8-------------------------------------------8-----------|
|6---------------------------------------------------------------|
|----------------------------------------------------------------|

 |               |               |               |

|--------------------2-----------4-------2-----------------------|
|--------3-------------------------------------------3-----------|
|5---------------------------------------------------------------|
|----------------------------------------------------------------|

 |               |               |               |

|--------------------6-----------8-------6-----------------------|
|--------8-------------------------------------------8-----------|
|6---------------------------------------------------------------|
|----------------------------------------------------------------|

 |               |               |               |

|--------------------2-----------4-------2-----------------------|
|--------3-------------------------------------------5-----------|
|5---------------------------------------------------------------|
|----------------------------------------------------------------|

 |               |               |               |

|--------------------------------2---------------2---------------|
|2---------------2-----------------------------------------0-----|
|----------------------------------------------------------------|
|----------------------------------------------------------------|

 |               |               |               |

|----------------------------------------------------------------|
|----------------------------------------------------------------|
|----------------------------------------------------------------|
|----------------------------------------------------------------|

 |               |               |               |

|2-------------------------2-------------------------------------|
|----------------------------------------------------------------|
|----------------------------------------------------------------|
|----------------------------------------------------------------|

 |               |               |               |

|----------------------------------------------------------------|
|0-------------------------0-------------------------------------|
|----------------------------------------------------------------|
|----------------------------------------------------------------|

 |               |               |               |

|0---------------------------------------------------------0-----|
|--------------------------0-------------------------------------|
|----------------------------------------------------------------|
|----------------------------------------------------------------|

 |               |               |               |

|--------------------------0-------------------------------------|
|----------------------------------------------------------------|
|----------------------------------------------------------------|
|----------------------------------------------------------------|

 |               |               |               |

|0-------------------------0-------------------------------------|
|----------------------------------------------------------------|
|----------------------------------------------------------------|
|----------------------------------------------------------------|

 |               |               |               |

|----------------------------------------------------------------|
|----------------------------------------------------------------|
|3-------------------------3-------------------------------------|
|----------------------------------------------------------------|

 |               |               |               |

|----------------------------------------------------------------|
|3-------------------------------3-------------------------------|
|----------------------------------------------------------------|
|----------------------------------------------------------------|

 |               |               |               |

|--------------------------2-------------------------------------|
|2---------------------------------------------------------------|
|----------------------------------------------------------------|
|----------------------------------------------------------------|

 |               |               |               |

|--------------------6-----------8-------6-----------------------|
|--------8-------------------------------------------8-----------|
|6---------------------------------------------------------------|
|----------------------------------------------------------------|

 |               |               |               |

|--------------------2-----------4-------2-----------------------|
|--------3-------------------------------------------3-----------|
|5---------------------------------------------------------------|
|----------------------------------------------------------------|

 |               |               |               |

|--------------------6-----------8-------6-----------------------|
|--------8-------------------------------------------8-----------|
|6---------------------------------------------------------------|
|----------------------------------------------------------------|

 |               |               |               |

|--------------------2-----------4-------2-----------------------|
|--------3-------------------------------------------3-----------|
|5---------------------------------------------------------------|
|----------------------------------------------------------------|

 |               |               |               |

|--------------------6-----------8-------6-----------------------|
|--------8-------------------------------------------8-----------|
|6---------------------------------------------------------------|
|----------------------------------------------------------------|

 |               |               |               |

|--------------------2-----------4-------2-----------------------|
|--------3-------------------------------------------3-----------|
|5---------------------------------------------------------------|
|----------------------------------------------------------------|

 |               |               |               |

|--------------------------------2---------------2---------------|
|2---------------2-----------------------------------------0-----|
|----------------------------------------------------------------|
|----------------------------------------------------------------|

 |               |               |               |

|----------------------------------------------------------------|
|----------------------------------------------------------------|
|----------------------------------------------------------------|
|----------------------------------------------------------------|

 |               |               |               |

|----------------------------------------------------------------|
|----------------------------------------------------------------|
|----------------------------------------------------------------|
|----------------------------------------------------------------|

 |               |               |               |

|----------------------------------------------------------------|
|----------------------------------------------------------------|
|----------------------------------------------------------------|
|----------------------------------------------------------------|

 |               |               |               |

|--------------------------------3---------------3---------------|
|----------------------------------------------------------------|
|----------------------------------------------------------------|
|----------------------------------------------------------------|

 |               |               |               |

|----------------------------------------------------------------|
|1---------------------------------------------------------1-----|
|--------------------------------1-------------------------------|
|----------------------------------------------------------------|

 |               |               |               |

|--------------------------------7-------------------------------|
|--------------------------7---------------7---------------------|
|5-----------------------------------------------5---------------|
|----------------------------------------------------------------|

 |               |               |               |

|--------------------------------3-------------------------------|
|1---------------------------------------------------------1-----|
|----------------------------------------------------------------|
|----------------------------------------------------------------|

 |               |               |               |

|--------------------------------7-------------------------------|
|--------------------------7---------------7---------------------|
|5-----------------------------------------------5---------------|
|----------------------------------------------------------------|

 |               |               |               |

|----------------------------------------------------------------|
|1---------------------------------------------------------------|
|--------------------------------1-------------------------------|
|----------------------------------------------------------------|

 |               |               |               |

|--------------------------------2-------------------------------|
|0---------------------------------------------------------------|
|----------------------------------------------------------------|
|----------------------------------------------------------------|

 |               |               |               |

|0---------------------------------------------------------------|
|----------------------------------------------------------------|
|--------------------------------0-------------------------0-----|
|--------------------------3-------------------------------------|

 |               |               |               |

|--------------------------------2-------------------------------|
|0---------------------------------------------------------2-----|
|----------------------------------------------------------------|
|----------------------------------------------------------------|

 |               |               |               |

|----------------------------------------------------------------|
|1---------------------------------------------------------------|
|--------------------------------1-------------------------------|
|----------------------------------------------------------------|

 |               |               |               |

|--------------------------------2-------------------------------|
|0---------------------------------------------------------------|
|----------------------------------------------------------------|
|----------------------------------------------------------------|

 |               |               |               |

|--------------------------------3-------------------------------|
|1---------------------------------------------------------------|
|----------------------------------------------------------------|
|----------------------------------------------------------------|

 |               |               |               |

|--------------------------------2-------------------------------|
|0---------------------------------------------------------------|
|----------------------------------------------------------------|
|----------------------------------------------------------------|

 |               |               |               |

|----------------------------------------------------------------|
|1---------------------------------------------------------1-----|
|--------------------------------1-------------------------------|
|----------------------------------------------------------------|

 |               |               |               |

|--------------------------------2-------------------------------|
|0---------------------------------------------------------0-----|
|----------------------------------------------------------------|
|----------------------------------------------------------------|

 |               |               |               |

|0---------------------------------------------------------------|
|----------------------------------------------------------2-----|
|--------------------------------0-------------------------------|
|--------------------------3-------------------------------------|

 |               |               |               |

|--------------------------------2-------------------------------|
|0---------------------------------------------------------------|
|----------------------------------------------------------------|
|----------------------------------------------------------------|

 |               |               |               |

|----------------------------------------------------------------|
|------------------------------------------------1---------------|
|0---------------1---------------3-------------------------------|
|----------------------------------------------------------------|

 |               |               |               |

|----------------2-----------------------------------------------|
|0-------------------------------4---------------0---------------|
|----------------------------------------------------------------|
|----------------------------------------------------------------|

 |               |               |               |

|------------------------------------------------7---------------|
|5-----------------------------------------------------7---------|
|----------------6---------------5-----------------------5-------|
|----------3-----------------------------------------------------|

 |               |               |               |

|0-------------------------------0-------------------------------|
|----------------4-----------------------------------------------|
|------------------------------------------------0---------------|
|----------------------------------------------------------------|

 |               |               |               |

|----------------------------------------------------------------|
|------------------------------------------------3---------------|
|1---------------3---------------4---------------------------1---|
|----------------------------------------------------------------|

 |               |               |               |

|----------------------------------------------------------------|
|----------------------------------------------------------4-----|
|3---------3-----1---------------0-------------------------------|
|------------------------------------------------3---------------|

 |               |               |               |

|----------------5-------------------------------5---------------|
|3-------------------------------3-------------------------------|
|----------3---------------3-------------------------------------|
|----------------------------------------------------------------|

 |               |               |               |

|----------------------------------------------------------------|
|2-----------------------------------------------2---------------|
|--------------------------------0-------------------------------|
|----------------4-------------------------0---------------0-----|

 |               |               |               |

|----------------8-----------------------------------------------|
|--------------------------------8---------------5---------------|
|6---------------------------------------------------------------|
|----------------------------------------------------------------|

 |               |               |               |

|7---------------------------------------------------------------|
|------------------------------------------------7---------------|
|----------------5---------------8-------------------------------|
|----------------------------------------------------------------|

 |               |               |               |

|--------------------------------0---------------3---------------|
|1---------------3-----------------------------------------------|
|----------------------------------------------------------------|
|----------------------------------------------------------------|

 |               |               |               |

|--------------------------------7-------------------------------|
|----------------7-------------------------------7---------------|
|5---------------------------------------------------------7-----|
|----------------------------------------------------------------|

 |               |               |               |

|--------------------------------0---------------3---------------|
|1---------------3-----------------------------------------------|
|----------1-------------------------------1---------------1-----|
|----------------------------------------------------------------|

 |               |               |               |

|----------------2-----------------------------------------------|
|0-------------------------------3---------------0---------------|
|----------0-----------------------------------------------0-----|
|----------------------------------------------------------------|

 |               |               |               |

|----------------7-----------------------------------------------|
|5-----------5---------------------------------------------------|
|----------------------------------------------------------------|
|--------------------------------5---------------5---------------|

 |               |               |               |

|------------------------------------------------2---------------|
|0---------0-----2---------------3-------------------------0-----|
|----------------------------------------------------------------|
|----------------------------------------------------------------|

 |               |               |               |

|--------------------------------0---------------3---------------|
|1---------------3-----------------------------------------------|
|----------1-------------------------------1---------------1-----|
|----------------------------------------------------------------|

 |               |               |               |

|--------------------------------7-------------------------------|
|----------------7-------------------------------7---------------|
|5---------------------------------------------------------7-----|
|----------------------------------------------------------------|

 |               |               |               |

|----------------8-----------------------------------------------|
|--------------------------------8---------------5---------------|
|6---------------------------------------------------------------|
|----------------------------------------------------------------|

 |               |               |               |

|------------------------------------------------2---------------|
|0---------------2---------------3-------------------------------|
|----------------------------------------------------------------|
|----------------------------------------------------------------|

 |               |               |               |

|--------------------------------0---------------3---------------|
|1---------------3-----------------------------------------------|
|----------1-------------------------------1---------------1-----|
|----------------------------------------------------------------|

 |               |               |               |

|------------------------------------------------2---------------|
|0---------------2---------------3-------------------------------|
|----------------------------------------------------------------|
|----------------------------------------------------------------|

 |               |               |               |

|----------------7-----------------------------------------------|
|5---------------------------------------------------------------|
|----------5---------------5-------------------------------------|
|--------------------------------5---------5-----5---------------|

 |               |               |               |

|----------------2-----------------------------------------------|
|0-------------------------------3---------------0---------------|
|----------------------------------------------------------------|
|----------------------------------------------------------------|

 |               |               |               |

|----------------2-----------------------------------------------|
|--------------------------------1-------------------------------|
|0-----------------------------------------------3---------------|
|----------------------------------------------------------------|

 |               |               |               |

|----------------7-----------------------------------------------|
|--------------------------------7---------------4---------------|
|5---------------------------------------------------------------|
|----------------------------------------------------------------|

 |               |               |               |

|----------------7-----------------------------------------------|
|5-----------5-----------------------------------4---------------|
|--------------------------------5-------------------------------|
|----------------------------------------------------------------|

 |               |               |               |

|----------------7-----------------------------------------------|
|5-------------------------------5---------5---------------------|
|----------------------------------------------------------------|
|------------------------------------------------5---------------|

 |               |               |               |

|----------------------------------------------------------------|
|----------------3-----------------------------------------------|
|1-------------------------------4---------------1---------------|
|----------------------------------------------------------------|

 |               |               |               |

|----------------------------------------------------------------|
|----------------------------------------------------------4-----|
|3---------3-----1---------------0-------------------------------|
|------------------------------------------------3---------------|

 |               |               |               |

|--------------------------------10------------------------------|
|--------------------------------------10------------------------|
|8---------------8-----------------------11------8---------------|
|----------1-----------------------------------------------------|

 |               |               |               |

|----------------------------------------------------------------|
|2-----------------------------------------------2---------------|
|--------------------------------0---------0---------------------|
|----------------4-----------------------------------------------|

 |               |               |               |

|--------------------------------8-------------------------------|
|----------------8-------------------------------8---------------|
|6---------------------------------------------------------6-----|
|----------------------------------------------------------------|

 |               |               |               |

|------------------------------------------------2---------------|
|0---------------2---------------3---------------------------0---|
|----------------------------------------------------------------|
|----------------------------------------------------------------|

 |               |               |               |

|--------------------------------8-------------------------------|
|----------------8-------------------------------8---------------|
|6---------------------------------------------------------6-----|
|----------------------------------------------------------------|

 |               |               |               |

|----------------7-----------------------------------------------|
|--------------------------------7-------------------------------|
|5-----------------------------------------------8---------------|
|----------------------------------------------------------------|

 |               |               |               |

|8---------------------------------------------------------------|
|--------------------------------5---------------8---------------|
|----------------6-----------------------------------------------|
|----------------------------------------------------------------|

 |               |               |               |

|------------------------------------------------2---------------|
|0---------------2---------------3-------------------------------|
|----------------------------------------------------------------|
|----------------------------------------------------------------|

 |               |               |               |

|0---------------------------------------------------------------|
|----------------------------------------------------------------|
|----------------1---------------0---------0-----4---------------|
|----------------------------------------------------------------|

 |               |               |               |

|----------------2-----------------------------------------------|
|0-------------------------------3---------------0---------------|
|----------0-----------------------------------------------0-----|
|----------------------------------------------------------------|

 |               |               |               |

|----------------3---------------0-------------------------------|
|1-----------------------------------------------1---------------|
|----------1-----------------------------------------------1-----|
|----------------------------------------------------------------|

 |               |               |               |

|------------------------------------------------2---------------|
|0---------0-----2---------------3-------------------------0-----|
|----------------------------------------------------------------|
|----------------------------------------------------------------|

 |               |               |               |

|----------------3---------------0-------------------------------|
|1-----------------------------------------------1---------------|
|----------1-----------------------------------------------1-----|
|----------------------------------------------------------------|

 |               |               |               |

|----------------7-----------------------------------------------|
|--------------------------------7-------------------------------|
|5-----------------------------------------------8---------------|
|----------------------------------------------------------------|

 |               |               |               |

|----------------3---------------0-------------------------------|
|1-----------------------------------------------1---------------|
|----------------------------------------------------------------|
|----------------------------------------------------------------|

 |               |               |               |

|----------------------------------------------------------1-----|
|0---------0-----------------------------------------------------|
|----------------3---------------2---------------0---------------|
|----------------------------------------------------------------|

 |               |               |               |

|0---------------0-----------------------------------------------|
|----------------------------------------------------------------|
|--------------------------------0---------0-----0---------------|
|----------3-----------------------------------------------------|

 |               |               |               |

|------------------------------------------------2---------------|
|0---------------2---------------3-------------------------------|
|----------------------------------------------------------------|
|----------------------------------------------------------------|

 |               |               |               |

|----------------3---------------0-------------------------------|
|1-----------------------------------------------1---------------|
|----------------------------------------------------------------|
|----------------------------------------------------------------|

 |               |               |               |

|------------------------------------------------2---------------|
|0---------------2---------------3-------------------------------|
|----------------------------------------------------------------|
|----------------------------------------------------------------|

 |               |               |               |

|----------------3---------------0-------------------------------|
|1-----------------------------------------------1---------------|
|----------------------------------------------------------------|
|----------------------------------------------------------------|

 |               |               |               |

|------------------------------------------------2---------------|
|0---------------2---------------3-------------------------------|
|----------0-------------------------------0---------------0-----|
|----------------------------------------------------------------|

 |               |               |               |

|8---------------------------------------------------------------|
|--------------------------------5---------------8---------------|
|----------------6-----------------------------------------------|
|----------------------------------------------------------------|

 |               |               |               |

|----------------------------------------------------------1-----|
|0---------0-----------------------------------------------------|
|----------------3---------------2---------------0---------------|
|----------------------------------------------------------------|

 |               |               |               |

|0---------------0---------------2-------------------------------|
|--------------------------------------2-------------------------|
|----------------------------------------4-------0---------------|
|----------3-----------------------------------------------------|

 |               |               |               |

|------------------------------------------------2---------------|
|0---------------2---------------3-------------------------------|
|----------0-------------------------------0---------------0-----|
|----------------------------------------------------------------|

 |               |               |               |

|2---------------------------------------------------------------|
|------------------------------------------------1---------------|
|----------------0---------------3-------------------------------|
|----------------------------------------------------------------|

 |               |               |               |

|--------------------------------7-------------------------------|
|----------------7-------------------------------7---------6-----|
|5---------------------------------------------------------------|
|----------------------------------------------------------------|

 |               |               |               |

|--------------------------------7-------------------------------|
|5---------5-------------------------------------7---------------|
|----------------4-----------------------------------------------|
|----------------------------------------------------------------|

 |               |               |               |

|----------------7-----------------------------------------------|
|5-----------5-------------------5-------------------------------|
|----------------------------------------------------------------|
|------------------------------------------------5---------------|

 |               |               |               |

|----------------------------------------------------------------|
|------------------------------------------------3---------------|
|1---------------3---------------4-------------------------------|
|----------------------------------------------------------------|

 |               |               |               |

|------------------------------------------------0---------------|
|----------------0---------------2-------------------------------|
|3---------------------------------------------------------------|
|----------------------------------------------------------------|

 |               |               |               |

|----------------5-------------------------------5---------------|
|3-------------------------------3-------------------------------|
|----------3---------------3---------------3---------------3-----|
|----------------------------------------------------------------|

 |               |               |               |

|----------------------------------------------------------------|
|2-----------------------------------------------2---------------|
|----------------1---------------0-------------------------------|
|----------0-------------------------------0---------------0-----|

 |               |               |               |

|----------------3---------------0-------------------------------|
|1-----------------------------------------------1---------------|
|----------1-----------------------------------------------1-----|
|----------------------------------------------------------------|

 |               |               |               |

|7---------------------------------------------------------------|
|------------------------------------------------7---------------|
|----------------5---------------8-------------------------------|
|----------------------------------------------------------------|

 |               |               |               |

|----------------8-----------------------------------------------|
|--------------------------------8---------------5---------------|
|6---------------------------------------------------------------|
|----------------------------------------------------------------|

 |               |               |               |

|------------------------------------------------2---------------|
|0---------------2---------------3-------------------------------|
|----------0-------------------------------0---------------0-----|
|----------------------------------------------------------------|

 |               |               |               |

|--------------------------------8-------------------------------|
|----------------8-------------------------------8---------------|
|6---------------------------------------------------------6-----|
|----------------------------------------------------------------|

 |               |               |               |

|----------------------------------------------------------------|
|0---------------2---------------3---------------3---------------|
|----------------------------------------------------------------|
|----------------------------------------------------------------|

 |               |               |               |

|0---------0-----------------------------------------------------|
|------------------------------------------------2---------------|
|--------------------------------0-----------0-------------------|
|----------------4-----------------------------------------------|

 |               |               |               |

|------------------------------------------------2---------------|
|0---------0-----2---------------3-------------------------0-----|
|----------------------------------------------------------------|
|----------------------------------------------------------------|

 |               |               |               |

|--------------------6-----------8-------6-----------------------|
|--------8-------------------------------------------8-----------|
|6---------------------------------------------------------------|
|----------------------------------------------------------------|

 |               |               |               |

|--------------------2-----------4-------2-----------------------|
|--------3-------------------------------------------3-----------|
|5---------------------------------------------------------------|
|----------------------------------------------------------------|

 |               |               |               |

|--------------------6-----------8-------6-----------------------|
|--------8-------------------------------------------8-----------|
|6---------------------------------------------------------------|
|----------------------------------------------------------------|

 |               |               |               |

|--------------------2-----------4-------2-----------------------|
|--------3-------------------------------------------3-----------|
|5---------------------------------------------------------------|
|----------------------------------------------------------------|

 |               |               |               |

|--------------------6-----------8-------6-----------------------|
|--------8-------------------------------------------8-----------|
|6---------------------------------------------------------------|
|----------------------------------------------------------------|

 |               |               |               |

|--------------------2-----------4-------2-----------------------|
|--------3-------------------------------------------5-----------|
|5---------------------------------------------------------------|
|----------------------------------------------------------------|

 |               |               |               |

|--------------------------------2---------------2---------------|
|2---------------2-----------------------------------------0-----|
|----------------------------------------------------------------|
|----------------------------------------------------------------|

Almost there ...

Sign in to get your own page with links to favourite songs and more. You are just one click away...

Login with Facebook Login with Google