Log in

One click and you are in

Login with Facebook Login with Google

Why sign up and log in

Guitar Tabs Explorer
Gg Allin tabs for Violence now

Guitar tabs

Intro
E---------------------------------|
B---------------------------------|
G-3-3-----3-3-----3-3-----3-3-----|
D-3-3-----3-3-----3-3-----3-3-----|
A-1-1-x-x-1-1-x-x-1-1-x-x-1-1-x-x-|
E---------------------------------|

Verse
E--------------------------------------------------------------------------------------------------|
B--------------------------------------------------------------------------------------------------|
G-8-8-8---8-8-8---8-8-8---8-8-8----3-3-----3-3-----3-3-----3-3-----8-8-8---8-8-8---8-8-8---8-8-8---|
D-8-8-8---8-8-8---8-8-8---8-8-8----3-3-----3-3-----3-3-----3-3-----8-8-8---8-8-8---8-8-8---8-8-8---|
A-6-6-6-x-6-6-6-x-6-6-6-x-6-6-6-x--1-1-x-x-1-1-x-x-1-1-x-x-1-1-x-x-6-6-6-x-6-6-6-x-6-6-6-x-6-6-6-x-|
E--------------------------------------------------------------------------------------------------|


Chorus
E---------------------------------|-----------------------------------------------------------------|
B---------------------------------|-----------------------------------------------------------------|
G-6-6-6-6-4-4-4-4-3-3-----3-3-----|-6-6-6-6-4-4-4-4-3-3-----3-3-----3-3-----3-3-----3-3-----3-3-----|
D-6-6-6-6-4-4-4-4-3-3-----3-3-----|-6-6-6-6-4-4-4-4-3-3-----3-3-----3-3-----3-3-----3-3-----3-3-----|
A-4-4-4-4-2-2-2-2-1-1-x-x-1-1-x-x-|-4-4-4-4-2-2-2-2-1-1-x-x-1-1-x-x-1-1-x-x-1-1-x-x-1-1-x-x-1-1-x-x-|
E---------------------------------|-----------------------------------------------------------------|


Outro ( just part of the chorus repeated)
E---------------------------------|
B---------------------------------|
G-6-6-6-6-4-4-4-4-3-3-----3-3-----|
D-6-6-6-6-4-4-4-4-3-3-----3-3-----|
A-4-4-4-4-2-2-2-2-1-1-x-x-1-1-x-x-|
E---------------------------------|

Almost there ...

Sign in to get your own page with links to favourite songs and more. You are just one click away...

Login with Facebook Login with Google