Log in

One click and you are in

Login with Facebook Login with Google

Why sign up and log in

Guitar Tabs Explorer
Gg Allin bass tabs for Teachers pet

Bass tabs with lyrics

Tuning: Standard (E A D G)

Key: A

Difficulty: Novice
Intro:
G|----------------------------------|----------------------------------|----------------------------------|
D|----------------------------------|----------------------------------|----------------------------------|
A|----------------------------------|--------------------------5-------|--------------------------5-------|
E|-5--------------------------------|-5-5-5-5-5-5-5-5--3---------------|-5-5-5-5-5-5-5-5--3---------------|


Verse:
("I was never the Teacher's Pet, no. I was a radical outside the rest, you know")
G|----------------------------------|----------------------------------|
D|----------------------------------|----------------------------------|
A|--------------------------5-------|--------------------------5-------|
E|-5-5-5-5-5-5-5-5--3---------------|-5-5-5-5-5-5-5-5--3---------------|

("You never follow the fucking rules, Cuz the teachers were a bunch of fools")
G|----------------------------------|----------------------------------|
D|----------------------------------|----------------------------------|
A|--------------------------5-------|--------------------------5-------|
E|-5-5-5-5-5-5-5-5--3---------------|-5-5-5-5-5-5-5-5--3---------------|


Chorus:
("Fuck you, if you tries to tell me what to do Fuck you, tries to tell me what to do")
G|-----------------------------5---5---|-----------------------------5---5---|
D|-------------------------------------|-------------------------------------|
A|---------3-3-3-3--5-5-5-5--3---3---3-|---------3-3-3-3--5-5-5-5--3---3---3-|
E|-5-5-5-5-----------------------------|-5-5-5-5-----------------------------|

Verse:
G|----------------------------------|----------------------------------|
D|----------------------------------|----------------------------------|
A|--------------------------5-------|--------------------------5-------|
E|-5-5-5-5-5-5-5-5--3---------------|-5-5-5-5-5-5-5-5--3---------------|

("Then I got me a real job, yeah that's what I did, But still I was a fucking slob")
G|----------------------------------|----------------------------------|
D|----------------------------------|----------------------------------|
A|--------------------------5-------|--------------------------5-------|
E|-5-5-5-5-5-5-5-5--3---------------|-5-5-5-5-5-5-5-5--3---------------|

("Killed my boss he told me to get a haircut that's what he did, I went downtown to fuck me some old slut...")
G|----------------------------------|----------------------------------|
D|----------------------------------|----------------------------------|
A|--------------------------5-------|--------------------------5-------|
E|-5-5-5-5-5-5-5-5--3---------------|-5-5-5-5-5-5-5-5--3---------------|


Chorus:
("Fuck you, if you tries to tell me what to do Fuck you, tries to tell me what to do")
G|-----------------------------5---5---|-----------------------------5---5---|
D|-------------------------------------|-------------------------------------|
A|---------3-3-3-3--5-5-5-5--3---3---3-|---------3-3-3-3--5-5-5-5--3---3---3-|
E|-5-5-5-5-----------------------------|-5-5-5-5-----------------------------|


Solo:
                    ("Don't tell me what to do!")
G|----------------------------------|----------------------------------|
D|----------------------------------|----------------------------------|
A|--------------------------5-------|--------------------------5-------|
E|-5-5-5-5-5-5-5-5--3---------------|-5-5-5-5-5-5-5-5--3---------------|

                       ("Fuckin' Guy!")
G|----------------------------------|----------------------------------|
D|----------------------------------|----------------------------------|
A|--------------------------5-------|--------------------------5-------|
E|-5-5-5-5-5-5-5-5--3---------------|-5-5-5-5-5-5-5-5--3---------------|

G|----------------------------------|----------------------------------|
D|----------------------------------|----------------------------------|
A|--------------------------5-------|--------------------------5-------|
E|-5-5-5-5-5-5-5-5--3---------------|-5-5-5-5-5-5-5-5--3---------------|


Chorus:
("You never tell me what to do, Fuck fuck fuck fuck fuck fuck you, You're never gonna tell me what to do")
G|-----------------------------5---5---|-----------------------------5---5---|
D|-------------------------------------|-------------------------------------|
A|---------3-3-3-3--5-5-5-5--3---3---3-|---------3-3-3-3--5-5-5-5--3---3---3-|
E|-5-5-5-5-----------------------------|-5-5-5-5-----------------------------|


Verse:
G|----------------------------------|----------------------------------|
D|----------------------------------|----------------------------------|
A|--------------------------5-------|--------------------------5-------|
E|-5-5-5-5-5-5-5-5--3---------------|-5-5-5-5-5-5-5-5--3---------------|

("This asshole come up to me, tries to tell me "What you do is bad" When I said "I don't care, you're a...")
G|----------------------------------|----------------------------------|
D|----------------------------------|----------------------------------|
A|--------------------------5-------|--------------------------5-------|
E|-5-5-5-5-5-5-5-5--3---------------|-5-5-5-5-5-5-5-5--3---------------|

("You think you're so fucking cool, You ain't shit, you can suck my tool")
G|----------------------------------|----------------------------------|
D|----------------------------------|----------------------------------|
A|--------------------------5-------|--------------------------5-------|
E|-5-5-5-5-5-5-5-5--3---------------|-5-5-5-5-5-5-5-5--3---------------|


Chorus:
("Fuck you, if you tries to tell me what to do Fuck you, tries to tell me what to do")
G|-----------------------------5---5---|-----------------------------5---5---|------|
D|-------------------------------------|-------------------------------------|------|
A|---------3-3-3-3--5-5-5-5--3---3---3-|---------3-3-3-3--5-5-5-5--3---3---3-|------|
E|-5-5-5-5-----------------------------|-5-5-5-5-----------------------------|-5----|

Almost there ...

Sign in to get your own page with links to favourite songs and more. You are just one click away...

Login with Facebook Login with Google