Log in

One click and you are in

Login with Facebook Login with Google

Why sign up and log in

Guitar Tabs Explorer
Gg Allin bass tabs for Outlaw scumfuc

Bass tabs with lyrics

Off 1988's "Freaks, Faggots, Drunks & Junkies"


      Verse 1 ("Everybody Knows that I'm a Scumbag...")
G---------|-------------------------------------------------------------------|
D---------|-------------------------------------------------------------------|
A---------|-3-3-3-3--5-5-5-5----------------------------------3-3-3-3-3-3-3-3-|
E-3-3-3-3-|------------------3-3-3-3-3-3-3-3--3-3-3-3-3-3-3-3-----------------|

"...Everyone's afraid of what might happen to them...."
G-------------------------------------------------------------------|
D-------------------------------------------------------------------|
A-3-3-3-3-3-3-3-3------------------0-0-0-0-0-0-0-0--5-5-5-5-5-5-5-5-|
E-----------------3-3-3-3--0-0-0-0----------------------------------|

Verse 2 ("Some Fuckhead in the corner")
G-------------------------------------------------------------------|
D-------------------------------------------------------------------|
A-3-3-3-3--5-5-5-5----------------------------------3-3-3-3-3-3-3-3-|
E------------------3-3-3-3-3-3-3-3--3-3-3-3-3-3-3-3-----------------|

G-------------------------------------------------------------------|
D-------------------------------------------------------------------|
A-3-3-3-3-3-3-3-3------------------0-0-0-0-0-0-0-0--5-5-5-5-5-5-5-5-|
E-----------------3-3-3-3--0-0-0-0----------------------------------|


Verse 3 ("Because everybody knows that I'm a Scumbag...")
G-------------------------------------------------------------------|
D-------------------------------------------------------------------|
A-3-3-3-3--5-5-5-5----------------------------------3-3-3-3-3-3-3-3-|
E------------------3-3-3-3-3-3-3-3--3-3-3-3-3-3-3-3-----------------|

G-------------------------------------------------------------------|
D-------------------------------------------------------------------|
A-3-3-3-3-3-3-3-3------------------0-0-0-0-0-0-0-0--5-5-5-5-5-5-5-5-|
E-----------------3-3-3-3--0-0-0-0----------------------------------|


Verse 4 ("Cuz I like to drink Whiskey by the gallon...")
G-------------------------------------------------------------------|
D-------------------------------------------------------------------|
A-3-3-3-3--5-5-5-5----------------------------------3-3-3-3-3-3-3-3-|
E------------------3-3-3-3-3-3-3-3--3-3-3-3-3-3-3-3-----------------|

G-------------------------------------------------------------------|
D-------------------------------------------------------------------|
A-3-3-3-3-3-3-3-3------------------0-0-0-0-0-0-0-0--5-5-5-5-5-5-5-5-|
E-----------------3-3-3-3--0-0-0-0----------------------------------|


Verse 5 "Because Everybody Knows That I'm A Scumbag")
G-------------------------------------------------------------------|
D-------------------------------------------------------------------|
A-3-3-3-3--5-5-5-5----------------------------------3-3-3-3-3-3-3-3-|
E------------------3-3-3-3-3-3-3-3--3-3-3-3-3-3-3-3-----------------|

G-------------------------------------------------------------------|
D-------------------------------------------------------------------|
A-3-3-3-3-3-3-3-3------------------0-0-0-0-0-0-0-0--5-5-5-5-5-5-5-5-|
E-----------------3-3-3-3--0-0-0-0----------------------------------|


Outro
G------------------------------------|
D------------------------------------|
A-3-3-3-3--5-5-5-5-------------------|
E------------------3-3-3-3-3-3-3-3---|

************************************************************************************************************
This is the off of 1988's "Freaks, Faggots, Drunks and Junkies" It's a reworking of David Allan Coe's "Long-
haired Redneck" This is the Electric version (GG Allin and Bulge) NOT the acoustic version which he recorded
with The Carolina Shit-Kickers and added in two extra interludes.

Whenever the Murder Junkies played this one live Merle would add a fill to the 2nd bar

G--------------------------------------------------------------------|
D--------------------------------------------------------------------|
A-3-3-3-3--5-5-5-5-----------------------------------3-3-3-3-3-3-3-3-|
E------------------3-3-3-3-3-3-3-3-2/3-3-3-3-3-3-3-3-----------------|

G------------------------------------------------------------------------------|
D------------------------------------------------------------------------------|
A-2/3-3-3-3-3-3-3-3------------------0-0-0-0-0-0-0-0--5-5-5-5--5-5-3-3-2-2-0-0-|
E-------------------3-3-3-3--0-0-0-0-------------------------------------------|
                               this is the fill:

Almost there ...

Sign in to get your own page with links to favourite songs and more. You are just one click away...

Login with Facebook Login with Google