Log in

One click and you are in

Login with Facebook Login with Google

Why sign up and log in

Guitar Tabs Explorer
Gg Allin bass tabs for Out for blood

Bass tabs with lyrics

Tuning: Standard (E A D G)

Key: B

Difficulty: Novice
Intro: (Guitar plays the verse riff)
G|-----------------------------------|
D|-----------------------------------|
A|-----------------------------------|
E|-----------------------------------|


Verse:
("Make me bleed, make me bleed, cuz I don't care, Stick me with a knife see if I'm scared, Make me bleed")
G|-----------------------------------|-----------------------------------|
D|-----------------------------------|-----------------------------------|
A|-2-2-2-2---------------------------|-2-2-2-2---------------------------|
E|---------3-3-3-3--5-5-5-5--2-2-2-2-|---------3-3-3-3--5-5-5-5--2-2-2-2-|

("Stick me down, step on my face, spit on me, cuz I won't scare, you'll see- Make me bleed")
G|-----------------------------------|-----------------------------------|
D|-----------------------------------|-----------------------------------|
A|-2-2-2-2---------------------------|-2-2-2-2---------------------------|
E|---------3-3-3-3--5-5-5-5--2-2-2-2-|---------3-3-3-3--5-5-5-5--2-2-2-2-|


Chorus:
("Can't you see, You'll never make me bleed, Enough to care")
G|--------------------------------------------------------------------|
D|------------------------------------------------------------7-5-----|
A|----------------------------------------------------------------7-5-|
E|-3-3-3-3-3-3-3-3--2-2-2-2-2-2-2-2--3-3-3-3-3-3-3-3--5-5-5-5---------|

("You'll never stop me, Cuz I am better, You're gonna see
G|--------------------------------------------------------------------|
D|--------------------------------------------------------------------|
A|--------------------------------------------------------------------|
E|-3-3-3-3-3-3-3-3--2-2-2-2-2-2-2-2--3-3-3-3-3-3-3-3--5-5-5-5-5-4-3-2-|

Verse:
("Whatcha gonna do? Whatcha gonna say? You can't stop me anyway, you'll see")
G|-----------------------------------|-----------------------------------|
D|-----------------------------------|-----------------------------------|
A|-2-2-2-2---------------------------|-2-2-2-2---------------------------|
E|---------3-3-3-3--5-5-5-5--2-2-2-2-|---------3-3-3-3--5-5-5-5--2-2-2-2-|

("Gonna do what I want, fuck you, I don't care what you do to me- Make me bleed")
G|-----------------------------------|-----------------------------------|
D|-----------------------------------|-----------------------------------|
A|-2-2-2-2---------------------------|-2-2-2-2---------------------------|
E|---------3-3-3-3--5-5-5-5--2-2-2-2-|---------3-3-3-3--5-5-5-5--2-2-2-2-|


Chorus:
("Can't you see, You can't stop me")
G|--------------------------------------------------------------------|
D|------------------------------------------------------------7-5-----|
A|----------------------------------------------------------------7-5-|
E|-3-3-3-3-3-3-3-3--2-2-2-2-2-2-2-2--3-3-3-3-3-3-3-3--5-5-5-5---------|

("You're nothing, nothing to me, can't you see, Gonna make you bleed")
G|--------------------------------------------------------------------|
D|---5----------------4----------------5----------------7-------------|
A|--------------------------------------------------------------------|
E|-3---3-3-3-3-3-3--2---2-2-2-2-2-2--3---3-3-3-3-3-3--5---5-5-5-4-3-2-|


Solo:
G|-----------------------------------|-----------------------------------|
D|-----------------------------------|-----------------------------------|
A|-2-2-2-2---------------------------|-2-2-2-2---------------------------|
E|---------3-3-3-3--5-5-5-5--2-2-2-2-|---------3-3-3-3--5-5-5-5--2-2-2-2-|

G|-----------------------------------|-----------------------------------|
D|-----------------------------------|-----------------------------------|
A|-2-2-2-2---------------------------|-2-2-2-2---------------------------|
E|---------3-3-3-3--5-5-5-5--2-2-2-2-|---------3-3-3-3--5-5-5-5--2-2-2-2-|

Chours:
("Can't you see, You'll never never fuck me")
G|--------------------------------------------------------------------|
D|------------------------------------------------------------7-5-----|
A|----------------------------------------------------------------7-5-|
E|-3-3-3-3-3-3-3-3--2-2-2-2-2-2-2-2--3-3-3-3-3-3-3-3--5-5-5-5---------|

("You're nothing, nothing to me, can't you see, Gonna make you bleed")
G|--------------------------------------------------------------------|
D|---5----------------4----------------5----------------7-----7-5-----|
A|----------------------------------------------------------------7-5-|
E|-3---3-3-3-3-3-3--2---2-2-2-2-2-2--3---3-3-3-3-3-3--5---5-5---------|


Verse:
("I don't care what you do, You're never gonna rule me")
G|-----------------------------------|-----------------------------------|
D|-----------------------------------|-----------------------------------|
A|-2-2-2-2---------------------------|-2-2-2-2---------------------------|
E|---------3-3-3-3--5-5-5-5--2-2-2-2-|---------3-3-3-3--5-5-5-5--2-2-2-2-|

("I'm better than you, fuck your way, my ways right, You are gonna see, fuck me")
G|-----------------------------------|-----------------------------------|
D|-----------------------------------|-----------------------------------|
A|-2-2-2-2---------------------------|-2-2-2-2---------------------------|
E|---------3-3-3-3--5-5-5-5--2-2-2-2-|---------3-3-3-3--5-5-5-5--2-2-2-2-|

Chours:
("Can't you see? Can't make me bleed")
G|--------------------------------------------------------------------|
D|---5----------------4-------4---4----5----------------7-----7-5-----|
A|----------------------------------------------------------------7-5-|
E|-3---3-3-3-3-3-3--2---2-2-2---2----3---3-3-3-3-3-3--5---5-5---------|

("You'll never, never be better than me, You'll never make me bleed")
G|--------------------------------------------------------------------|--------|
D|---5----------------4------------------5-----5--------7-----7-5-----|--------|
A|----------------------------------------------------------------7-5-|-2------|
E|-3---3-3-3-3-3-3--2---2-2-2-2-2-2--3-3---3-3---3-3--5---5-5---------|--------|

Almost there ...

Sign in to get your own page with links to favourite songs and more. You are just one click away...

Login with Facebook Login with Google