Log in

One click and you are in

Login with Facebook Login with Google

Why sign up and log in

Guitar Tabs Explorer
Gg Allin bass tabs for Murder junkies album

Bass tabs

GG Allin and ANTISEEN from the 1991 album "Murder Junkies" this is the reissue from TKO Records


1. Murder For The Mission ***********************************************************************************

Intro                                       x3
G-------------------------------------------------|---------------------------------|
D-------------------------------------------------|---------------------------------|
A-------------------------------------------------|---------------------------------|
E---------------------------------2---------------|-6---4---6---4---2---------------|


Whole rest of song
G---------------------------------|
D---------------------------------|
A---------------------------------|
E-6---4---6---4---2-2-2-2-2-2-2-2-|


2. I Love Nothing ********************************************************************************************


Intro
(Guitar Only)


Verse           x4
G----------------------------|
D----------------------------|
A----------------------------|
E-2/4--4-2/4--4--2----2/4--4-|


Chorus           x2
G----------------------------|
D----------------------------|
A----------------------------|
E-4/6--6-4/6--6--4----2/4--4-|

Verse           x4
G----------------------------|
D----------------------------|
A----------------------------|
E-2/4--4-2/4--4--2----2/4--4-|


Chorus           x2
G----------------------------|
D----------------------------|
A----------------------------|
E-4/6--6-4/6--6--4----2/4--4-|


Verse           x4
G----------------------------|
D----------------------------|
A----------------------------|
E-2/4--4-2/4--4--2----2/4--4-|


3. 99 Stab Wounds *******************************************************************************************


Verse 1
G------------------|------------------|------------------|------------------|
D------------------|------------------|------------------|------------------|
A-6--4--2----------|-6--4--2----------|-6--4--2----------|-6--4--2----------|
E----------4-4-4-4-|----------4-4-4-4-|----------4-4-4-4-|----------4-4-4-4-|


Chorus ("Ninety-Nine, Ninety-Nine...")
G--------------------------------------------|
D--------------------------------------------|
A--------------------------------------------|
E-4-4-4---4-4-4---4-4-4--4-4-4--4-4-4--4-4-4-|


Verse ("By the time I'm done nobody will know...)
G----------------------------------|----------------------------------|
D----------------------------------|----------------------------------|
A----------------------------------|----------------------------------|
E-6-6-6-6-6-6-6-6--4-4-4-4-4-4-4-4-|-6-6-6-6-6-6-6-6--4-4-4-4-4-4-4-4-|


PreChorus ("Decapitation... Decapitation... Decapitation.... Decapitation")
G------------------|------------------|------------------|------------------|
D------------------|------------------|------------------|------------------|
A-6--4--2----------|-6--4--2----------|-6--4--2----------|-6--4--2----------|
E----------4-4-4-4-|----------4-4-4-4-|----------4-4-4-4-|----------4-4-4-4-|


Chorus ("Ninety-Nine, Ninety-Nine...")
G--------------------------------------------|
D--------------------------------------------|
A--------------------------------------------|
E-4-4-4---4-4-4---4-4-4--4-4-4--4-4-4--4-4-4-|


Verse ("Come Along and Play Hide and Seek...")
G----------------------------------|----------------------------------|
D----------------------------------|----------------------------------|
A----------------------------------|----------------------------------|
E-6-6-6-6-6-6-6-6--4-4-4-4-4-4-4-4-|-6-6-6-6-6-6-6-6--4-4-4-4-4-4-4-4-|


PreChorus ("Decapitation... Decapitation... Decapitation.... Decapitation")
G------------------|------------------|------------------|------------------|
D------------------|------------------|------------------|------------------|
A-6--4--2----------|-6--4--2----------|-6--4--2----------|-6--4--2----------|
E----------4-4-4-4-|----------4-4-4-4-|----------4-4-4-4-|----------4-4-4-4-|


Chorus ("Ninety-Nine, Ninety-Nine...")
G--------------------------------------------|
D--------------------------------------------|
A--------------------------------------------|
E-4-4-4---4-4-4---4-4-4--4-4-4--4-4-4--4-4-4-|


Verse ("It's Such a High Watching You Die")
G----------------------------------|----------------------------------|
D----------------------------------|----------------------------------|
A----------------------------------|----------------------------------|
E-6-6-6-6-6-6-6-6--4-4-4-4-4-4-4-4-|-6-6-6-6-6-6-6-6--4-4-4-4-4-4-4-4-|


PreChorus ("Decapitation... Decapitation... Decapitation.... Decapitation")
G------------------|------------------|------------------|------------------|
D------------------|------------------|------------------|------------------|
A-6--4--2----------|-6--4--2----------|-6--4--2----------|-6--4--2----------|
E----------4-4-4-4-|----------4-4-4-4-|----------4-4-4-4-|----------4-4-4-4-|


Chorus ("Ninety-Nine, Ninety-Nine...")
G--------------------------------------------|
D--------------------------------------------|
A--------------------------------------------|
E-4-4-4---4-4-4---4-4-4--4-4-4--4-4-4--4-4-4-|


4. War In My Head ********************************************************************************************


Verse
G-------------------------------------------------------|
D-------------------------------------------------------|
A-------------------------------------------------------|
E-6--6--6----4--4--4----2--2--2----4--4--4----6--6--6---|

G-------------------------------------------------------|
D-------------------------------------------------------|
A-------------------------------------------------------|
E-6--6--6----4--4--4----2--2--2----4--4--4----6---------|


Chorus             x8
G--------------------------------|-----------------------------|
D--------------------------------|-----------------------------|
A--------------------------------|-----------------------------|
E-6-6-6-6-4-4-4-4--2--2-2--2-2-2-|-4-4-4-4-4-4-4-4---6---------|

listen for order


5. Sister Sodomy *********************************************************************************************

Whole Song
G-----------------------------------|-----------------------------------|
D-----------------------------------|-----------------------------------|
A-6-6-6-6-----------6-6-6-6-6-6-6-6-|-3-3-3-3--6-6-6-6------------------|
E----------6-6-6-6------------------|-------------------6-6-6-6-6-6-6-6-|

G----------------------------------------------------------------------|
D----------------------------------------------------------------------|
A-6-6-6-6-6-6-6-6-----------3-3-3-3--6-6-6-6-----------6-6-6-6-6-6-6-6-|
E------------------6-6-6-6--------------------6-6-6-6------------------|


Repeat 4 times


6. Violence Now *********************************************************************************************


Intro
G---------------------------------|
D---------------------------------|
A-1-1-----1-1-----1-1-----1-1-----|
E---------------------------------|


Verse
G--------------------------------------------------------------------------------------------------|
D--------------------------------------------------------------------------------------------------|
A-6-6-6---6-6-6---6-6-6---6-6-6----1-1-----1-1-----1-1-----1-1-----6-6-6---6-6-6---6-6-6---6-6-6---|
E--------------------------------------------------------------------------------------------------|


Chorus
G---------------------------------|-----------------------------------------------------------------|
D---------------------------------|-----------------------------------------------------------------|
A-4-4-4-4-2-2-2-2-1-1-----1-1-----|-4-4-4-4-2-2-2-2-1-1-----1-1-----1-1-----1-1-----1-1-----1-1-----|
E---------------------------------|-----------------------------------------------------------------|


Outro (just part of the chorus repeated)
G---------------------------------|
D---------------------------------|
A-4-4-4-4-2-2-2-2-1-1-----1-1-----|
E---------------------------------|

Just Listen For The Order


7. Rape, Torture, Terminate & Fuck ***************************************************************************

Main part
G-----------------|-----------------|-----------------|-----------------|
D-----------------|-----------------|-----------------|-----------------|
A-----4-4-2-2-----|-----4-4-2-2-----|-----4-4-2-2-----|-----4-4-2-2-----|
E-4-4---------2-2-|-4-4---------2-2-|-4-4---------2-2-|-4-4---------2-2-|


Bridge   ("Rape... Torture")
G-----------------------------|
D-----------------------------|
A-----------------------------|
E-2-2---2-2---4-4-4-4-6-6-6-6-|

Just Listen For Order


8. Kill The Police *****************************************************************************************


Verses
G-----------------------------------------------------------------|
D-----------------------------------------------------------------|
A-----------------------------------------------------------------|
E-2-2-2-2-2-2-2-2-2-2-2-2-2-2-2-2-2-2-2-2-2-2-2-2-2-2-2-2-2-2-2-2-|


Chorus
G---------------------------------------------------------------------------------------------------|
D---------------------------------------------------------------------------------------------------|
A-2-2-2-2-2-2-2-2-2-2-2-2-2-2-2-2-2---------------------------------4-4-4-4-4-4-4-4-4-4-4-4-4-4-4-4-|
E-----------------------------------2-2-2-2-2-2-2-2-2-2-2-2-2-2-2-2---------------------------------|

Listen For Order


9. I Hate People ********************************************************************************************


Intro
G---------------------------------------------------------------|
D---------------------------------------------------------------|
A-------------------------------------------------------6-6-4-4-|
E---------------------------------------------------------------|

G---------------------------------------------------------------|
D---------------------------------------------------------------|
A-1--1--1-1-1-1---4--4--4-4-4-4---6--6--6-6-6-6---1--1--6-6-4-4-|
E---------------------------------------------------------------|


Verse                             x4
G---------------------------------------------------------------|
D---------------------------------------------------------------|
A-1--1--1-1-1-1---4--4--4-4-4-4---6--6--6-6-6-6---1--1--6-6-4-4-|
E---------------------------------------------------------------|

Interlude   ("People, People, Die at my feet")     1:10:
G---------------------------------------------------------------|
D---------------------------------------------------------------|
A-6--6--6-6-6-6---4--4--4-4-4-4---6--6--6-6-6-6---4--4--6-6-4-4-|
E---------------------------------------------------------------|


Verse                             x6
G---------------------------------------------------------------|
D---------------------------------------------------------------|
A-1--1--1-1-1-1---4--4--4-4-4-4---6--6--6-6-6-6---1--1--6-6-4-4-|
E---------------------------------------------------------------|

Interlude   ("People... People...)           2:40:
G---------------------------------------------------------------|
D---------------------------------------------------------------|
A-6--6--6-6-6-6---4--4--4-4-4-4---6--6--6-6-6-6---4--4--6-6-4-4-|
E---------------------------------------------------------------|


Verse                             x6
G---------------------------------------------------------------|
D---------------------------------------------------------------|
A-1--1--1-1-1-1---4--4--4-4-4-4---6--6--6-6-6-6---1--1--6-6-4-4-|
E---------------------------------------------------------------|

Interlude ("Get me a Dark Room, Bottle and a Prostitute" 4:06:
G---------------------------------------------------------------|
D---------------------------------------------------------------|
A-6--6--6-6-6-6---4--4--4-4-4-4---6--6--6-6-6-6---4--4--6-6-4-4-|
E---------------------------------------------------------------|


Verse                             x6
G---------------------------------------------------------------|
D---------------------------------------------------------------|
A-1--1--1-1-1-1---4--4--4-4-4-4---6--6--6-6-6-6---1--1--6-6-4-4-|
E---------------------------------------------------------------|


Interlude ("I Don't Need You, I Don't need you"     5:20:
G---------------------------------------------------------------|
D---------------------------------------------------------------|
A-6--6--6-6-6-6---4--4--4-4-4-4---6--6--6-6-6-6---4--4--6-6-4-4-|
E---------------------------------------------------------------|


Verse                             x6
G---------------------------------------------------------------|
D---------------------------------------------------------------|
A-1--1--1-1-1-1---4--4--4-4-4-4---6--6--6-6-6-6---1--1--6-6-4-4-|
E---------------------------------------------------------------|


Interlude ("You're Gonna Pay People, Now Again"     6:46:
G---------------------------------------------------------------|-----------------------------------|
D---------------------------------------------------------------|-----------------------------------|
A-6--6--6-6-6-6---4--4--4-4-4-4---6--6--6-6-6-6---4--4--6-6-4-4-|--1---------------------------1----|
E---------------------------------------------------------------|-----------------------------------|


10. My Prison Walls ******************************************************************************************


First Verse           x2
G---------------------------------|---------------------------------|---------------------------------|
D---------------------------------|---------------------------------|---------------------------------|
A---------------------------------|-2/4---4---------2/4---4---------|---------------------------------|
E-2/4---4---------2/4---4---------|---------------------------------|-2/4---4---------2/4---4---------|


Chorus
G---------------------------------|
D---------------------------------|
A-4/6---6---------2/4---4---------|
E---------------------------------|


Second Verse          x3
G---------------------------------|---------------------------------|---------------------------------|
D---------------------------------|---------------------------------|---------------------------------|
A---------------------------------|-2/4---4---------2/4---4---------|---------------------------------|
E-2/4---4---------2/4---4---------|---------------------------------|-2/4---4---------2/4---4---------|


Chorus
G---------------------------------|
D---------------------------------|
A-4/6---6---------2/4---4---------|
E---------------------------------|


*Play second verse again


The outro is just the 2nd verse repeated, but slowed down


11. Cock On The Loose ***************************************************************************************


Chorus
G--------------------------------------|-----------------------------------|
D--------------------------------------|-----------------------------------|
A-------------------------3-3-3--5-5-5-|--------------------------5--3-----|
E-3-------3-------3--------------------|-3-------3-------3--------------3--|


Verse                x4
G-------------------------------------|
D-------------------------------------|
A-3-3-3-3--5-5-5-5-----------5--3-----|
E-------------------3-3-3-3--------3--|


Nothing to it, just listen for order. The Verse part is "It's about to explode..."


12. Layin' Up With Linda ************************************************************************************

Performed w/ The Carolina Shit Kickers. No Bass, just an acoustic guitar is used on this track

13. I Wanna Fuck The Shit Out Of You ************************************************************************

Performed w/ The Carolina Shit Kickers. No Bass, just an acoustic guitar is used on this track

14. Outlaw Scumfuc ******************************************************************************************

Performed w/ The Carolina Shit Kickers. No Bass, just an acoustic guitar is used on this track

Almost there ...

Sign in to get your own page with links to favourite songs and more. You are just one click away...

Login with Facebook Login with Google