Log in

One click and you are in

Login with Facebook Login with Google

Why sign up and log in

Guitar Tabs Explorer
Gg Allin tabs for Im a rapist

Guitar tabs

A chord diagramE MajorE Standard Tuning (EADGBE)


Intro
e----------------------------|
B----------------------------|
G-10--10--10--10/8--8--8--8--|
D-10--10--10--10/8--8--8--8--|  X6
A-8---8---8---8 /6--6--6--6--|
E----------------------------|


Chorus
e-----------------|
B-----------------|
G-6---6---5---5---|
D-6---6---5---5---|  X3
A-4---4---3---3---|
E-----------------|

e---------------------------------|
B---------------------------------|
G-3-3-3-3-3-3-3-3-3-3-3-3-3-3-3-3-|
D-3-3-3-3-3-3-3-3-3-3-3-3-3-3-3-3-|
A-1-1-1-1-1-1-1-1-1-1-1-1-1-1-1-1-|
E---------------------------------|



Verse
e----------------------------|
B----------------------------|
G-10--10--10--10/8--8--8--8--|
D-10--10--10--10/8--8--8--8--|  X4
A-8---8---8---8 /6--6--6--6--|
E----------------------------|



Chorus
e-----------------|
B-----------------|
G-6---6---5---5---|
D-6---6---5---5---|  X3
A-4---4---3---3---|
E-----------------|

e---------------------------------|
B---------------------------------|
G-3-3-3-3-3-3-3-3-3-3-3-3-3-3-3-3-|
D-3-3-3-3-3-3-3-3-3-3-3-3-3-3-3-3-|
A-1-1-1-1-1-1-1-1-1-1-1-1-1-1-1-1-|
E---------------------------------|



Solo
e----------------------------|
B----------------------------|
G-10--10--10--10/8--8--8--8--|
D-10--10--10--10/8--8--8--8--|  X4
A-8---8---8---8 /6--6--6--6--|
E----------------------------|



Chorus
e-----------------|
B-----------------|
G-6---6---5---5---|
D-6---6---5---5---|  X3
A-4---4---3---3---|
E-----------------|

e---------------------------------|
B---------------------------------|
G-3-3-3-3-3-3-3-3-3-3-3-3-3-3-3-3-|
D-3-3-3-3-3-3-3-3-3-3-3-3-3-3-3-3-|
A-1-1-1-1-1-1-1-1-1-1-1-1-1-1-1-1-|
E---------------------------------|



Verse
e----------------------------|
B----------------------------|
G-10--10--10--10/8--8--8--8--|
D-10--10--10--10/8--8--8--8--|  X4
A-8---8---8---8 /6--6--6--6--|
E----------------------------|



Chorus
e-----------------|
B-----------------|
G-6---6---5---5---|
D-6---6---5---5---|  X3
A-4---4---3---3---|
E-----------------|

e---------------------------------|
B---------------------------------|
G-3-3-3-3-3-3-3-3-3-3-3-3-3-3-3-3-|
D-3-3-3-3-3-3-3-3-3-3-3-3-3-3-3-3-|
A-1-1-1-1-1-1-1-1-1-1-1-1-1-1-1-1-|
E---------------------------------|



Verse
e----------------------------|
B----------------------------|
G-10--10--10--10/8--8--8--8--|
D-10--10--10--10/8--8--8--8--|  X4
A-8---8---8---8 /6--6--6--6--|
E----------------------------|



Chorus
e-----------------|
B-----------------|
G-6---6---5---5---|
D-6---6---5---5---|  X3
A-4---4---3---3---|
E-----------------|

e---------------------------------|
B---------------------------------|
G-3-3-3-3-3-3-3-3-3-3-3-3-3-3-3-3-|
D-3-3-3-3-3-3-3-3-3-3-3-3-3-3-3-3-|
A-1-1-1-1-1-1-1-1-1-1-1-1-1-1-1-1-|
E---------------------------------|



Outro
e----------------------------|
B----------------------------|
G-10----------------------10-|
D-10----------------------10-|
A-8-----------------------8--|

Almost there ...

Sign in to get your own page with links to favourite songs and more. You are just one click away...

Login with Facebook Login with Google