Log in

One click and you are in

Login with Facebook Login with Google

Why sign up and log in

Guitar Tabs Explorer
Gg Allin bass tabs for I wanna fuck your brains out

I Wanna Fuck Your Brains Out bass tab by Gg Allin

Gg Allin bass tabs for I wanna fuck your brains out

Bass tabs with lyrics

Tuning: Standard (E A D G)

Key: D

Difficulty: Novice
Chorus:
("I wanna fuck your brains out I wanna stick my cock in your mouth, I Wanna fuck your brains out I wanna...")
G|-----------------------------------------|-----------------------------------------|
D|-----------------------------------------|-----------------------------------------|
A|-5-5-5-5--4--2---0--5-5-5-5--4--2-2-2--0-|-5-5-5-5--4--2---0--5-5-5-5--4--2-2-2--0-|
E|-----------------------------------------|-----------------------------------------|


Verse:
("You walk right by with your nose in the air, Shakin your ass in the smokey air Your skin tight pants...")
G|-------------------------------------|--------------------------------------|
D|-------------------------------------|--------------------------------------|
A|---------0-0--2--0---------0-0--2--0-|---------0-0--2--0--5-5-5-5--2-2--0-0-|
E|-3-3-3-3-----------3-3-3-3-----------|-3-3-3-3------------------------------|

("You make my tongue so hot and crazy, I wanna fuck you and I don't mean maybe, You put me in a fuckin...")
G|-------------------------------------|--------------------------------------|
D|-------------------------------------|--------------------------------------|
A|---------0-0--2--0---------0-0--2--0-|---------0-0--2--0--5-5-5-5--2-2--0-0-|
E|-3-3-3-3-----------3-3-3-3-----------|-3-3-3-3------------------------------|

("You're a real hot bitch I'm a real cold bastard, You get fucked up and go to the pasture, I show you...")
G|-------------------------------------|---------------------------------------|
D|-------------------------------------|---------------------------------------|
A|---------0-0--2--0---------0-0--2--0-|---------0-0--2--0--5-5-5--------------|
E|-3-3-3-3-----------3-3-3-3-----------|-3-3-3-3-------------------5-5-5-5-5-5-|


Chorus:
("I wanna fuck your brains out I wanna stick my cock in your mouth, I Wanna fuck your brains out I wanna...")
G|-----------------------------------------|-----------------------------------------|
D|-----------------------------------------|-----------------------------------------|
A|-5-5-5-5--4--2---0--5-5-5-5--4--2-2-2--0-|-5-5-5-5--4--2---0--5-5-5-5--4--2-2-2--0-|
E|-----------------------------------------|-----------------------------------------|

Verse:
("Drink your piss to see where it came from, I lick your shorts 'til the crust is gone Sit on my face...")
G|-------------------------------------|--------------------------------------|
D|-------------------------------------|--------------------------------------|
A|---------0-0--2--0---------0-0--2--0-|---------0-0--2--0--5-5-5-5--2-2--0-0-|
E|-3-3-3-3-----------3-3-3-3-----------|-3-3-3-3------------------------------|

("Your tongue is gettin' to me, I wanna fuck you in The Zoo, I wanna get you down on the fuckin' ground...")
G|-------------------------------------|--------------------------------------|
D|-------------------------------------|--------------------------------------|
A|---------0-0--2--0---------0-0--2--0-|---------0-0--2--0--5-5-5-5--2-2--0-0-|
E|-3-3-3-3-----------3-3-3-3-----------|-3-3-3-3------------------------------|

("Bring me to a fuckin state I'd like to get your pussy ate You look me in the eyes I don't care I want you")
G|-------------------------------------|---------------------------------------|
D|-------------------------------------|---------------------------------------|
A|---------0-0--2--0---------0-0--2--0-|---------0-0--2--0--5-5-5--------------|
E|-3-3-3-3-----------3-3-3-3-----------|-3-3-3-3-------------------5-5-5-5-5-5-|


Chorus:
("I wanna fuck your brains out I wanna stick my cock in your mouth, I Wanna fuck your brains out I wanna...")
G|-----------------------------------------|-----------------------------------------|
D|-----------------------------------------|-----------------------------------------|
A|-5-5-5-5--4--2---0--5-5-5-5--4--2-2-2--0-|-5-5-5-5--4--2---0--5-5-5-5--4--2-2-2--0-|
E|-----------------------------------------|-----------------------------------------|


Solo:
G|-------------------------------------|--------------------------------------|
D|-------------------------------------|--------------------------------------|
A|---------0-0--2--0---------0-0--2--0-|---------0-0--2--0--5-5-5-5--2-2--0-0-|
E|-3-3-3-3-----------3-3-3-3-----------|-3-3-3-3------------------------------|

G|-------------------------------------|--------------------------------------|
D|-------------------------------------|--------------------------------------|
A|---------0-0--2--0---------0-0--2--0-|---------0-0--2--0--5-5-5-5--2-2--0-0-|
E|-3-3-3-3-----------3-3-3-3-----------|-3-3-3-3------------------------------|

G|-------------------------------------|---------------------------------------|
D|-------------------------------------|---------------------------------------|
A|---------0-0--2--0---------0-0--2--0-|---------0-0--2--0--5-5-5--------------|
E|-3-3-3-3-----------3-3-3-3-----------|-3-3-3-3-------------------5-5-5-5-5-5-|


Chorus:
("I wanna fuck your brains out I wanna stick my cock in your mouth, I Wanna fuck your brains out I wanna...")
G|-----------------------------------------|-----------------------------------------|
D|-----------------------------------------|-----------------------------------------|
A|-5-5-5-5--4--2---0--5-5-5-5--4--2-2-2--0-|-5-5-5-5--4--2---0--5-5-5-5--4--2-2-2--0-|
E|-----------------------------------------|-----------------------------------------|


Verse:
("I'm a real hot bitch I'm a real cold bastard, I wanna fuck ya in the cow like the pasture I wanna stick...")
G|-------------------------------------|--------------------------------------|
D|-------------------------------------|--------------------------------------|
A|---------0-0--2--0---------0-0--2--0-|---------0-0--2--0--5-5-5-5--2-2--0-0-|
E|-3-3-3-3-----------3-3-3-3-----------|-3-3-3-3------------------------------|

("I just don't give a fuck, I'm so down on my fuckin luck I don't like you but you gimme a blow I don't care")
G|-------------------------------------|--------------------------------------|
D|-------------------------------------|--------------------------------------|
A|---------0-0--2--0---------0-0--2--0-|---------0-0--2--0--5-5-5-5--2-2--0-0-|
E|-3-3-3-3-----------3-3-3-3-----------|-3-3-3-3------------------------------|

("Cause your hair just smells like cherry, You ain't no fuckin Mary, You're fuckin the Virgin Mary, Oh yeah")
G|-------------------------------------|---------------------------------------|
D|-------------------------------------|---------------------------------------|
A|---------0-0--2--0---------0-0--2--0-|---------0-0--2--0--5-5-5--------------|
E|-3-3-3-3-----------3-3-3-3-----------|-3-3-3-3-------------------5-5-5-5-5-5-|


Chorus:
("I wanna fuck your brains out I wanna stick my cock in your mouth, I Wanna fuck your brains out I wanna...")
G|-----------------------------------------|-----------------------------------------|
D|-----------------------------------------|-----------------------------------------|
A|-5-5-5-5--4--2---0--5-5-5-5--4--2-2-2--0-|-5-5-5-5--4--2---0--5-5-5-5--4--2-2-2--0-|
E|-----------------------------------------|-----------------------------------------|

Almost there ...

Sign in to get your own page with links to favourite songs and more. You are just one click away...

Login with Facebook Login with Google