Log in

One click and you are in

Login with Facebook Login with Google

Why sign up and log in

Guitar Tabs Explorer
Gg Allin bass tabs for I wanna fuck myself

Bass tabs

Intro
G---------------------------------------------------------------------|
D---------------------------------------------------------------------|
A---------------------------------------------------------------------|
E-----------------------------1--2--3--3-3-3-3--3-3-3-3--3-3-3--1--2--|

G---------------------------------------------------------------------|
D---------------------------------------------------------------------|
A---------------------------------------------------------------------|
E-3--3-3-3-3--3-3-3-3--3-3-3--1--2--3--3-3-3-3--3-3-3-3--3-3-3--1--2--|
Verse                                x2
G---------------------------------------------------------------------|
D---------------------------------------------------------------------|
A---------------------------------------------------------------------|
E-3--3-3-3-3--3-3-3-3--3-3-3--1--2--3--3-3-3-3--3-3-3-3--3-3-3--1--2--|


Chorus                   x2
G---------------------------------------------|--------------------------------------------------------------|
D---------------------------------------------|--------------------------------------------------------------|
A-3-3-3----------------3-3-3-3----------------|--------------------------------------------------------------|
E-------3-3-3--1-1-1-1---------3-3-3--1-1-1-1-|-3-3-3-1-1-1--3-3-3--1-1-1--1-1-1-1-1-1-1-1--3-3-3-3-3--1--2--|


Main Riff                              x2
G---------------------------------------------------------------------|
D---------------------------------------------------------------------|
A---------------------------------------------------------------------|
E-3--3-3-3-3--3-3-3-3--3-3-3--1--2--3--3-3-3-3--3-3-3-3--3-3-3--1--2--|


Verse                                x2
G---------------------------------------------------------------------|
D---------------------------------------------------------------------|
A---------------------------------------------------------------------|
E-3--3-3-3-3--3-3-3-3--3-3-3--1--2--3--3-3-3-3--3-3-3-3--3-3-3--1--2--|

Chorus                   x2
G---------------------------------------------|--------------------------------------------------------------|
D---------------------------------------------|--------------------------------------------------------------|
A-3-3-3----------------3-3-3-3----------------|--------------------------------------------------------------|
E-------3-3-3--1-1-1-1---------3-3-3--1-1-1-1-|-3-3-3-1-1-1--3-3-3--1-1-1--1-1-1-1-1-1-1-1--3-3-3-3-3--1--2--|


Main Riff                              x2
G---------------------------------------------------------------------|
D---------------------------------------------------------------------|
A---------------------------------------------------------------------|
E-3--3-3-3-3--3-3-3-3--3-3-3--1--2--3--3-3-3-3--3-3-3-3--3-3-3--1--2--|


Solo
G---------------------------------------------------------------------|
D---------------------------------------------------------------------|
A---------------------------------------------------------------------|
E-3--3-3-3-3--3-3-3-3--3-3-3--1--2--3--3-3-3-3--3-3-3-3--3-3-3--1--2--|


Chorus                   x2
G---------------------------------------------|--------------------------------------------------------------|
D---------------------------------------------|--------------------------------------------------------------|
A-3-3-3----------------3-3-3-3----------------|--------------------------------------------------------------|
E-------3-3-3--1-1-1-1---------3-3-3--1-1-1-1-|-3-3-3-1-1-1--3-3-3--1-1-1--1-1-1-1-1-1-1-1--3-3-3-3-3--1--2--|


Main Riff                              x2
G---------------------------------------------------------------------|
D---------------------------------------------------------------------|
A---------------------------------------------------------------------|
E-3--3-3-3-3--3-3-3-3--3-3-3--1--2--3--3-3-3-3--3-3-3-3--3-3-3--1--2--|


Verse                                x2
G---------------------------------------------------------------------|
D---------------------------------------------------------------------|
A---------------------------------------------------------------------|
E-3--3-3-3-3--3-3-3-3--3-3-3--1--2--3--3-3-3-3--3-3-3-3--3-3-3--1--2--|


Chorus                   x2
G---------------------------------------------|--------------------------------------------------------------|
D---------------------------------------------|--------------------------------------------------------------|
A-3-3-3----------------3-3-3-3----------------|--------------------------------------------------------------|
E-------3-3-3--1-1-1-1---------3-3-3--1-1-1-1-|-3-3-3-1-1-1--3-3-3--1-1-1--1-1-1-1-1-1-1-1--3-3-3-3-3--1--2--|


Main Riff
G---------------------------------------------------------------------|--------------------|
D---------------------------------------------------------------------|--------------------|
A---------------------------------------------------------------------|--------------------|
E-3--3-3-3-3--3-3-3-3--3-3-3--1--2--3--3-3-3-3--3-3-3-3--3-3-3--1--2--|--3-----------------|

Almost there ...

Sign in to get your own page with links to favourite songs and more. You are just one click away...

Login with Facebook Login with Google