Log in

One click and you are in

Login with Facebook Login with Google

Why sign up and log in

Guitar Tabs Explorer
Gg Allin tabs for I hate people

Guitar tabs

A chord diagramE MajorE Standard Tuning (EADGBE)


Intro + Riff 2
E---------------------------------------------------------------|
B---------------6-6-6---6-6-6-6-8-8-8---8-8-8-8-8------8-8--6-6-|
G---------------6-6-6---6-6-6-6-8-8-8---8-8-8-8-8------8-8--6-6-|
D-8-8---8-8-8-8-4-4-4---4-4-4-4-6-6-6---6-6-6-6-6-8-8--6-6--4-4-|
A-8-8---8-8-8-8-----------------------------------8-8-----------|
E-6-6---6-6-6-6-----------------------------------6-6-----------|


Riff 2
E---------------------------------------------------------|
B---------------------------------------------------------|
G-8-8--8-8-8-8--6-6--6-6-6-6--8-8--8-8-8-8--6-6--8-8--6-6-|
D-8-8--8-8-8-8--6-6--6-6-6-6--8-8--8-8-8-8--6-6--8-8--6-6-|
A-6-6--6-6-6-6--4-4--4-4-4-4--6-6--6-8-8-8--4-4--6-6--4-4-|

Almost there ...

Sign in to get your own page with links to favourite songs and more. You are just one click away...

Login with Facebook Login with Google