Log in

One click and you are in

Login with Facebook Login with Google

Why sign up and log in

Guitar Tabs Explorer
Gg Allin bass tabs for I hate people

Bass tabs

Intro
G---------------------------------------------------------------|
D---------------------------------------------------------------|
A-------------------------------------------------------6-6-4-4-|
E---------------------------------------------------------------|

G---------------------------------------------------------------|
D---------------------------------------------------------------|
A-1--1--1-1-1-1---4--4--4-4-4-4---6--6--6-6-6-6---1--1--6-6-4-4-|
E---------------------------------------------------------------|
Verse                             x4
G---------------------------------------------------------------|
D---------------------------------------------------------------|
A-1--1--1-1-1-1---4--4--4-4-4-4---6--6--6-6-6-6---1--1--6-6-4-4-|
E---------------------------------------------------------------|

Interlude   ("People, People, Die at my feet")     1:10:
G---------------------------------------------------------------|
D---------------------------------------------------------------|
A-6--6--6-6-6-6---4--4--4-4-4-4---6--6--6-6-6-6---4--4--6-6-4-4-|
E---------------------------------------------------------------|


Verse                             x6
G---------------------------------------------------------------|
D---------------------------------------------------------------|
A-1--1--1-1-1-1---4--4--4-4-4-4---6--6--6-6-6-6---1--1--6-6-4-4-|
E---------------------------------------------------------------|

Interlude   ("People... People...)           2:40:
G---------------------------------------------------------------|
D---------------------------------------------------------------|
A-6--6--6-6-6-6---4--4--4-4-4-4---6--6--6-6-6-6---4--4--6-6-4-4-|
E---------------------------------------------------------------|

Verse                             x6
G---------------------------------------------------------------|
D---------------------------------------------------------------|
A-1--1--1-1-1-1---4--4--4-4-4-4---6--6--6-6-6-6---1--1--6-6-4-4-|
E---------------------------------------------------------------|

Interlude ("Get me a Dark Room, Bottle and a Prostitute" 4:06:
G---------------------------------------------------------------|
D---------------------------------------------------------------|
A-6--6--6-6-6-6---4--4--4-4-4-4---6--6--6-6-6-6---4--4--6-6-4-4-|
E---------------------------------------------------------------|


Verse                             x6
G---------------------------------------------------------------|
D---------------------------------------------------------------|
A-1--1--1-1-1-1---4--4--4-4-4-4---6--6--6-6-6-6---1--1--6-6-4-4-|
E---------------------------------------------------------------|


Interlude ("I Don't Need You, I Don't need you"     5:20:
G---------------------------------------------------------------|
D---------------------------------------------------------------|
A-6--6--6-6-6-6---4--4--4-4-4-4---6--6--6-6-6-6---4--4--6-6-4-4-|
E---------------------------------------------------------------|


Verse                             x6
G---------------------------------------------------------------|
D---------------------------------------------------------------|
A-1--1--1-1-1-1---4--4--4-4-4-4---6--6--6-6-6-6---1--1--6-6-4-4-|
E---------------------------------------------------------------|


Interlude ("You're Gonna Pay People, Now Again"     6:46:
G---------------------------------------------------------------|-----------------------------------|
D---------------------------------------------------------------|-----------------------------------|
A-6--6--6-6-6-6---4--4--4-4-4-4---6--6--6-6-6-6---4--4--6-6-4-4-|--1---------------------------1----|

Almost there ...

Sign in to get your own page with links to favourite songs and more. You are just one click away...

Login with Facebook Login with Google