Log in

One click and you are in

Login with Facebook Login with Google

Why sign up and log in

Guitar Tabs Explorer
Gg Allin bass tabs for Gypsy motherfucker

Bass tabs

Intro:
G|---------------------------------------|---------------------------------------|
D|---------------------------------------|---------------------------------------|
A|-----------3--3-3-3--------------------|-----------3--3-3-3--------------------|
E|-3--3-3-3-----------1--1-1-1--3--3-3-3-|-3--3-3-3-----------1--1-1-1--3--3-3-3-|
Verse:
("To the Cunt in Minnesota...")
G|---------------------------------------|---------------------------------------|
D|---------------------------------------|---------------------------------------|
A|-----------3--3-3-3--------------------|-----------3--3-3-3--------------------|
E|-3--3-3-3-----------1--1-1-1--3--3-3-3-|-3--3-3-3-----------1--1-1-1--3--3-3-3-|

G|---------------------------------------|---------------------------------------|
D|---------------------------------------|---------------------------------------|
A|-----------3--3-3-3--------------------|-----------3--3-3-3--------------------|
E|-3--3-3-3-----------1--1-1-1--3--3-3-3-|-3--3-3-3-----------1--1-1-1--3--3-3-3-|


Chorus:
G|---------------------------------|---------------------------------|
D|---------------------------------|---------------------------------|
A|---------3-3-3-3---------5-5-5-5-|---------3-3-3-3---------5-5-5-5-|
E|-1-1-1-1---------3-3-3-3---------|-1-1-1-1---------3-3-3-3---------|

G|---------------------------------|------------------------------------------|
D|---------------------------------|------------------------------------------|
A|---------3-3-3-3---------5-5-5-5-|---------3-3-3-3---------5-5-5-5--5-5-5-5-|
E|-1-1-1-1---------3-3-3-3---------|-1-1-1-1---------3-3-3-3------------------|

Mid-Solo:
G|---------------------------------------|---------------------------------------|
D|---------------------------------------|---------------------------------------|
A|-----------3--3-3-3--------------------|-----------3--3-3-3--------------------|
E|-3--3-3-3-----------1--1-1-1--3--3-3-3-|-3--3-3-3-----------1--1-1-1--3--3-3-3-|

Verse:
("I remember your vagina...")
G|---------------------------------------|---------------------------------------|
D|---------------------------------------|---------------------------------------|
A|-----------3--3-3-3--------------------|-----------3--3-3-3--------------------|
E|-3--3-3-3-----------1--1-1-1--3--3-3-3-|-3--3-3-3-----------1--1-1-1--3--3-3-3-|

G|---------------------------------------|---------------------------------------|
D|---------------------------------------|---------------------------------------|
A|-----------3--3-3-3--------------------|-----------3--3-3-3--------------------|
E|-3--3-3-3-----------1--1-1-1--3--3-3-3-|-3--3-3-3-----------1--1-1-1--3--3-3-3-|


Chorus:
G|---------------------------------|---------------------------------|
D|---------------------------------|---------------------------------|
A|---------3-3-3-3---------5-5-5-5-|---------3-3-3-3---------5-5-5-5-|
E|-1-1-1-1---------3-3-3-3---------|-1-1-1-1---------3-3-3-3---------|

G|---------------------------------|------------------------------------------|
D|---------------------------------|------------------------------------------|
A|---------3-3-3-3---------5-5-5-5-|---------3-3-3-3---------5-5-5-5--5-5-5-5-|
E|-1-1-1-1---------3-3-3-3---------|-1-1-1-1---------3-3-3-3------------------|


Solo:
G|---------------------------------------|---------------------------------------|
D|---------------------------------------|---------------------------------------|
A|-----------3--3-3-3--------------------|-----------3--3-3-3--------------------|
E|-3--3-3-3-----------1--1-1-1--3--3-3-3-|-3--3-3-3-----------1--1-1-1--3--3-3-3-|


Chorus:
G|---------------------------------|---------------------------------|
D|---------------------------------|---------------------------------|
A|---------3-3-3-3---------5-5-5-5-|---------3-3-3-3---------5-5-5-5-|
E|-1-1-1-1---------3-3-3-3---------|-1-1-1-1---------3-3-3-3---------|

G|---------------------------------|------------------------------------------|
D|---------------------------------|------------------------------------------|
A|---------3-3-3-3---------5-5-5-5-|---------3-3-3-3---------5-5-5-5--5-5-5-5-|
E|-1-1-1-1---------3-3-3-3---------|-1-1-1-1---------3-3-3-3------------------|


Intro:
G|---------------------------------------|---------------------------------------|
D|---------------------------------------|---------------------------------------|
A|-----------3--3-3-3--------------------|-----------3--3-3-3--------------------|
E|-3--3-3-3-----------1--1-1-1--3--3-3-3-|-3--3-3-3-----------1--1-1-1--3--3-3-3-|


Verse:
("In New York City with a knife to your throat...")
G|---------------------------------------|---------------------------------------|
D|---------------------------------------|---------------------------------------|
A|-----------3--3-3-3--------------------|-----------3--3-3-3--------------------|
E|-3--3-3-3-----------1--1-1-1--3--3-3-3-|-3--3-3-3-----------1--1-1-1--3--3-3-3-|

G|---------------------------------------|---------------------------------------|
D|---------------------------------------|---------------------------------------|
A|-----------3--3-3-3--------------------|-----------3--3-3-3--------------------|
E|-3--3-3-3-----------1--1-1-1--3--3-3-3-|-3--3-3-3-----------1--1-1-1--3--3-3-3-|


Chorus:
G|---------------------------------|---------------------------------|
D|---------------------------------|---------------------------------|
A|---------3-3-3-3---------5-5-5-5-|---------3-3-3-3---------5-5-5-5-|
E|-1-1-1-1---------3-3-3-3---------|-1-1-1-1---------3-3-3-3---------|

G|---------------------------------|------------------------------------------|
D|---------------------------------|------------------------------------------|
A|---------3-3-3-3---------5-5-5-5-|---------3-3-3-3---------5-5-5-5--5-5-5-5-|
E|-1-1-1-1---------3-3-3-3---------|-1-1-1-1---------3-3-3-3------------------|


Outro:
G|---------------------------------------|--------------------------------------|
D|---------------------------------------|--------------------------------------|
A|-----------3--3-3-3--------------------|-----------3--3-3-3-------------------|
E|-3--3-3-3-----------1--1-1-1--3--3-3-3-|-3--3-3-3-----------1--1-1-1--3-3-3-3-|

Almost there ...

Sign in to get your own page with links to favourite songs and more. You are just one click away...

Login with Facebook Login with Google