Log in

One click and you are in

Login with Facebook Login with Google

Why sign up and log in

Guitar Tabs Explorer
Gg Allin tabs for Dead or alive

Guitar tabs

I discovered it recently when i found yhis live on youtube ;)
This tab don't include solo
Tabbed by : Bartek Wreczycki
e-mail:cegua666@gmail.com

Intro:
E-------------------------------------------------------|
B-------------------------------------------------------|
G-------------------------------------------------------|
D-------------------------------------------------------|
A--7-7-7-7-7--9-9---------------------------------------|
E--5-5-5-5-5--7-7---------------------------------------|


Verse:
E-------------------------------------------------------------|
B-------------------------------------------------------------|
G-------------------------------------------------------------|
D--9-9-9-9-9-9-9-9--------------------------------------------|
A--7-7-7-7-7-7-7-7-9-9-9-7-7----------------------------------|
E------------------7-7-7-5-5----------------------------------|

Chorus:
E--------------------------------------------------------|
B--------------------------------------------------------|
G--------------------------------------------------------|
D--------------------------------------------------------|
A-9-9-9-9-7-7-7-7----------------------------------------|

Almost there ...

Sign in to get your own page with links to favourite songs and more. You are just one click away...

Login with Facebook Login with Google