Log in

One click and you are in

Login with Facebook Login with Google

Why sign up and log in

Guitar Tabs Explorer
Gg Allin bass tabs for Dead or alive

Bass tabs

Intro
G-------------------------|--------------------------|---------------|
D-------------------------|--------------------------|---------------|
A-------------------------|--------------------------|----------7----|
E---------------7-7-------|----------------7-7-------|------------7--|

G-------------------------|-------------------------|-------------------------|-------------------------|
D-------------------------|-------------------------|-------------------------|-------------------------|
A-7-7--7-7----------------|-7-7--7-7----------------|-5-5--5-5----------------|-7-7--7-7----------------|
E-----------7--5-5-5-5-7--|-----------7--5-5-5-5-7--|-----------5--3-3-3-3-5--|-----------7--5-5-5-5-7--|
Verse
G-------------------------|-------------------------|-------------------------|-------------------------|
D-------------------------|-------------------------|-------------------------|-------------------------|
A-7-7--7-7----------------|-7-7--7-7----------------|-7-7--7-7----------------|-7-7--7-7----------------|
E-----------7--5-5-5-5-7--|-----------7--5-5-5-5-7--|-----------7--5-5-5-5-7--|-----------7--5-5-5-5-7--|


Chorus ("I'm going crazy...")
G-------------------------|--------------------------|---------------|
D-------------------------|--------------------------|---------------|
A-------------------------|--------------------------|----------7----|
E-5-5-5-5--7--7-7-7-7-7-6-|--5-5-5-5--7--7-7-7-7-7-6-|-5-5-5-5----7--|

G-------------------------|-------------------------|-------------------------|-------------------------|
D-------------------------|-------------------------|-------------------------|-------------------------|
A-7-7--7-7----------------|-7-7--7-7----------------|-5-5--5-5----------------|-7-7--7-7----------------|
E-----------7--5-5-5-5-7--|-----------7--5-5-5-5-7--|-----------5--3-3-3-3-5--|-----------7--5-5-5-5-7--|


Verse
G-------------------------|-------------------------|-------------------------|-------------------------|
D-------------------------|-------------------------|-------------------------|-------------------------|
A-7-7--7-7----------------|-7-7--7-7----------------|-7-7--7-7----------------|-7-7--7-7----------------|
E-----------7--5-5-5-5-7--|-----------7--5-5-5-5-7--|-----------7--5-5-5-5-7--|-----------7--5-5-5-5-7--|

Chorus ("I'm going crazy...")
G-------------------------|--------------------------|---------------|
D-------------------------|--------------------------|---------------|
A-------------------------|--------------------------|----------7----|
E-5-5-5-5--7--7-7-7-7-7-6-|--5-5-5-5--7--7-7-7-7-7-6-|-5-5-5-5----7--|

G-------------------------|-------------------------|-------------------------|-------------------------|
D-------------------------|-------------------------|-------------------------|-------------------------|
A-7-7--7-7----------------|-7-7--7-7----------------|-5-5--5-5----------------|-7-7--7-7----------------|
E-----------7--5-5-5-5-7--|-----------7--5-5-5-5-7--|-----------5--3-3-3-3-5--|-----------7--5-5-5-5-7--|


Solo (Just the verse)
G-------------------------|-------------------------|-------------------------|-------------------------|
D-------------------------|-------------------------|-------------------------|-------------------------|
A-7-7--7-7----------------|-7-7--7-7----------------|-7-7--7-7----------------|-7-7--7-7----------------|
E-----------7--5-5-5-5-7--|-----------7--5-5-5-5-7--|-----------7--5-5-5-5-7--|-----------7--5-5-5-5-7--|


Chorus ("I'm going crazy...")
G-------------------------|--------------------------|---------------|
D-------------------------|--------------------------|---------------|
A-------------------------|--------------------------|----------7----|
E-5-5-5-5--7--7-7-7-7-7-6-|--5-5-5-5--7--7-7-7-7-7-6-|-5-5-5-5----7--|

G-------------------------|-------------------------|-------------------------|-------------------------|
D-------------------------|-------------------------|-------------------------|-------------------------|
A-7-7--7-7----------------|-7-7--7-7----------------|-5-5--5-5----------------|-7-7--7-7----------------|
E-----------7--5-5-5-5-7--|-----------7--5-5-5-5-7--|-----------5--3-3-3-3-5--|-----------7--5-5-5-5-7--|


Verse
G-------------------------|-------------------------|-------------------------|-------------------------|
D-------------------------|-------------------------|-------------------------|-------------------------|
A-7-7--7-7----------------|-7-7--7-7----------------|-7-7--7-7----------------|-7-7--7-7----------------|
E-----------7--5-5-5-5-7--|-----------7--5-5-5-5-7--|-----------7--5-5-5-5-7--|-----------7--5-5-5-5-7--|


Chorus ("I'm going crazy...")
G-------------------------|--------------------------|---------------|
D-------------------------|--------------------------|---------------|
A-------------------------|--------------------------|----------7----|
E-5-5-5-5--7--7-7-7-7-7-6-|--5-5-5-5--7--7-7-7-7-7-6-|-5-5-5-5----7--|

G-------------------------|--------------------------|---------------|
D-------------------------|--------------------------|---------------|
A-------------------------|--------------------------|----------7----|
E-5-5-5-5--7--7-7-7-7-7-6-|--5-5-5-5--7--7-7-7-7-7-6-|-5-5-5-5----7--|

G-------------------------|--------------------------|---------------|--------------|
D-------------------------|--------------------------|---------------|--------------|
A-------------------------|--------------------------|----------7----|-7------------|
E-5-5-5-5--7--7-7-7-7-7-6-|--5-5-5-5--7--7-7-7-7-7-6-|-5-5-5-5----7--| -------------|

Almost there ...

Sign in to get your own page with links to favourite songs and more. You are just one click away...

Login with Facebook Login with Google