Log in

One click and you are in

Login with Facebook Login with Google

Why sign up and log in

Guitar Tabs Explorer
Gg Allin bass tabs for Caroline and sue

Bass tabs

Verse 1:

G|---------------------|---------------------|---------------------|---------------------|
D|---------------------|---------------------|---------------------|---------------------|
A|-3-3-3-3-------1-1-1-|-3-3-3-3-------1-1-1-|-3-3-3-3-------1-1-1-|-3-3-3-3-------1-1-1-|
E|---------3-3-3-------|---------3-3-3-------|---------3-3-3-------|---------3-3-3-------|

G|---------------------|---------------------|---------------------|---------------------|
D|---------------------|---------------------|---------------------|---------------------|
A|-3-3-3-3-------1-1-1-|-3-3-3-3-------1-1-1-|-3-3-3-3-------1-1-1-|-3-3-3-3-------1-1-1-|
E|---------3-3-3-------|---------3-3-3-------|---------3-3-3-------|---------3-3-3-------|

Pre-Chorus:

 ("And I Shouldn't Love Her")
G|---------------------------------|
D|-------------5-5-----------------|
A|-5-5-5-5-5-5-----0-0-0-0-0-0-0-0-|
E|---------------------------------|


Chorus:

("Sucking One And Fucking Two")
G|------------------------------------------------------------------|
D|-5-5-5-5-5-5-5-4------------------5-5-5-5-5-5-5-4-----------------|
A|-----------------0-0-0-0-0-0-0-0------------------0-0-0-0-0-0-0-0-|
E|------------------------------------------------------------------|(x2)


Verse:

G|---------------------|---------------------|---------------------|---------------------|
D|---------------------|---------------------|---------------------|---------------------|
A|-3-3-3-3-------1-1-1-|-3-3-3-3-------1-1-1-|-3-3-3-3-------1-1-1-|-3-3-3-3-------1-1-1-|
E|---------3-3-3-------|---------3-3-3-------|---------3-3-3-------|---------3-3-3-------|

G|---------------------|---------------------|---------------------|---------------------|
D|---------------------|---------------------|---------------------|---------------------|
A|-3-3-3-3-------1-1-1-|-3-3-3-3-------1-1-1-|-3-3-3-3-------1-1-1-|-3-3-3-3-------1-1-1-|
E|---------3-3-3-------|---------3-3-3-------|---------3-3-3-------|---------3-3-3-------|


Pre-Chorus:

 ("Fuckin' One And Fuckin' Two")
G|---------------------------------|
D|-------------5-5-----------------|
A|-5-5-5-5-5-5-----0-0-0-0-0-0-0-0-|
E|---------------------------------|


Chorus:

("Sucking One And Fucking Two")
G|------------------------------------------------------------------|
D|-5-5-5-5-5-5-5-4------------------5-5-5-5-5-5-5-4-----------------|
A|-----------------0-0-0-0-0-0-0-0------------------0-0-0-0-0-0-0-0-|
E|------------------------------------------------------------------|(x2)


Verse:

G|---------------------|---------------------|---------------------|---------------------|
D|---------------------|---------------------|---------------------|---------------------|
A|-3-3-3-3-------1-1-1-|-3-3-3-3-------1-1-1-|-3-3-3-3-------1-1-1-|-3-3-3-3-------1-1-1-|
E|---------3-3-3-------|---------3-3-3-------|---------3-3-3-------|---------3-3-3-------|

G|---------------------|---------------------|---------------------|---------------------|
D|---------------------|---------------------|---------------------|---------------------|
A|-3-3-3-3-------1-1-1-|-3-3-3-3-------1-1-1-|-3-3-3-3-------1-1-1-|-3-3-3-3-------1-1-1-|
E|---------3-3-3-------|---------3-3-3-------|---------3-3-3-------|---------3-3-3-------|


Pre-Chorus:

 ("Suckin' One And Fuckin' Two")
G|---------------------------------|
D|-------------5-5-----------------|
A|-5-5-5-5-5-5-----0-0-0-0-0-0-0-0-|
E|---------------------------------|


Chorus:

 ("Sucking One And Fucking Two")
G|------------------------------------------------------------------|
D|-5-5-5-5-5-5-5-4------------------5-5-5-5-5-5-5-4-----------------|
A|-----------------0-0-0-0-0-0-0-0------------------0-0-0-0-0-0-0-0-|
E|------------------------------------------------------------------|(x2)


Outro:

G|---------------------|---------------------|---------------------|---------------------|
D|---------------------|---------------------|---------------------|---------------------|
A|-3-3-3-3-------1-1-1-|-3-3-3-3-------1-1-1-|-3-3-3-3-------1-1-1-|-3-3-3-3-------1-1-1-|

Almost there ...

Sign in to get your own page with links to favourite songs and more. You are just one click away...

Login with Facebook Login with Google