Log in

One click and you are in

Login with Facebook Login with Google

Why sign up and log in

Guitar Tabs Explorer
Gg Allin bass tabs for 99 stab wounds

Bass tabs

Verse 1
G------------------|------------------|------------------|------------------|
D------------------|------------------|------------------|------------------|
A-6--4--2----------|-6--4--2----------|-6--4--2----------|-6--4--2----------|
E----------4-4-4-4-|----------4-4-4-4-|----------4-4-4-4-|----------4-4-4-4-|

Chorus ("Ninety-Nine, Ninety-Nine...")
G--------------------------------------------|
D--------------------------------------------|
A--------------------------------------------|
E-4-4-4---4-4-4---4-4-4--4-4-4--4-4-4--4-4-4-|


Verse ("By the time I'm done nobody will know...)
G----------------------------------|----------------------------------|
D----------------------------------|----------------------------------|
A----------------------------------|----------------------------------|
E-6-6-6-6-6-6-6-6--4-4-4-4-4-4-4-4-|-6-6-6-6-6-6-6-6--4-4-4-4-4-4-4-4-|


PreChorus ("Decapitation... Decapitation... Decapitation.... Decapitation")
G------------------|------------------|------------------|------------------|
D------------------|------------------|------------------|------------------|
A-6--4--2----------|-6--4--2----------|-6--4--2----------|-6--4--2----------|
E----------4-4-4-4-|----------4-4-4-4-|----------4-4-4-4-|----------4-4-4-4-|


Chorus ("Ninety-Nine, Ninety-Nine...")
G--------------------------------------------|
D--------------------------------------------|
A--------------------------------------------|
E-4-4-4---4-4-4---4-4-4--4-4-4--4-4-4--4-4-4-|


Verse ("Come Along and Play Hide and Seek...")
G----------------------------------|----------------------------------|
D----------------------------------|----------------------------------|
A----------------------------------|----------------------------------|
E-6-6-6-6-6-6-6-6--4-4-4-4-4-4-4-4-|-6-6-6-6-6-6-6-6--4-4-4-4-4-4-4-4-|


PreChorus ("Decapitation... Decapitation... Decapitation.... Decapitation")
G------------------|------------------|------------------|------------------|
D------------------|------------------|------------------|------------------|
A-6--4--2----------|-6--4--2----------|-6--4--2----------|-6--4--2----------|
E----------4-4-4-4-|----------4-4-4-4-|----------4-4-4-4-|----------4-4-4-4-|


Chorus ("Ninety-Nine, Ninety-Nine...")
G--------------------------------------------|
D--------------------------------------------|
A--------------------------------------------|
E-4-4-4---4-4-4---4-4-4--4-4-4--4-4-4--4-4-4-|


Verse ("It's Such a High Watching You Die")
G----------------------------------|----------------------------------|
D----------------------------------|----------------------------------|
A----------------------------------|----------------------------------|
E-6-6-6-6-6-6-6-6--4-4-4-4-4-4-4-4-|-6-6-6-6-6-6-6-6--4-4-4-4-4-4-4-4-|


PreChorus ("Decapitation... Decapitation... Decapitation.... Decapitation")
G------------------|------------------|------------------|------------------|
D------------------|------------------|------------------|------------------|
A-6--4--2----------|-6--4--2----------|-6--4--2----------|-6--4--2----------|
E----------4-4-4-4-|----------4-4-4-4-|----------4-4-4-4-|----------4-4-4-4-|


Chorus ("Ninety-Nine, Ninety-Nine...")
G--------------------------------------------|
D--------------------------------------------|
A--------------------------------------------|
E-4-4-4---4-4-4---4-4-4--4-4-4--4-4-4--4-4-4-|

Almost there ...

Sign in to get your own page with links to favourite songs and more. You are just one click away...

Login with Facebook Login with Google