Log in

One click and you are in

Login with Facebook Login with Google

Why sign up and log in

Guitar Tabs Explorer
The Getaway Plan bass tabs for Where the city meets the sea

Where The City Meets The Sea bass tab by The Getaway Plan

The Getaway Plan bass tabs for Where the city meets the sea

Bass tabs

Tuning: Drop D (D A D G)


Intro - come in at 0:13:

G|-------------------------------------------------------------------------------------|
D|-------------------------------------------------------------------------------------|
A|-------------------------------------------------------------------------------------|
D|-0----------------2----------------4----------------2----------------0---------------|

G|---------------------------------------------------------------------------|
D|---------------------------------------------------------------------------|
A|----------------------------------------------------5----------------------| let note ring:
D|-2----------------4----------------4---------------------------------------|

come back in at 0:31:

G|-------------------------------------------------|
D|-------------------------------------------------|
A|-------------------------------------------------|
D|-0(x8)-2(x8)-4(x8)-2(x8)-0(x8)-2(x8)-4(x8)-4(x8)-|


Verse:

G|--------------------------------------------------|
D|--------------------------------------------------|
A|--------------------------------------------------|
D|-0-0-0--0--0-2-2-2--2--2-4-4-4--4--4-2-2-2--2-2-2-| X4

G|-----------------------------------|
D|-----------------------------------|
A|-----------------------------------|
D|-0---------------2---------------4-| let note ring:


Chorus:

G|--------------------------------------------|
D|--------------------------------------------|
A|--------------------------------------------|
D|-0(x8)-2(x8)-4(x8)-2(x8)-0(x8)-2(x8)-4(x16)-|


Verse 2:

G|--------------------------------------------------|
D|--------------------------------------------------|
A|--------------------------------------------------|
D|-0-0-0--0--0-2-2-2--2--2-4-4-4--4--4-2-2-2--2-2-2-| X4


Chorus:

G|--------------------------------------------|
D|--------------------------------------------|
A|--------------------------------------------|
D|-0(x8)-2(x8)-4(x8)-2(x8)-0(x8)-2(x8)-4(x16)-| X2


Bridge:

G|--------------------------------------------|
D|--------------------------------------------|
A|--------------------------------------------|
D|-0(x8)-2(x8)-4(x16)----0-0(x4)-2(x8)-4(x16)-|

G|-------------------------------------------------|
D|-------------------------------------------------|
A|-------------------------------------------------|
D|-0---------------2---------------4---------------| let note ring:

G|----------------------------|
D|----------------------------|
A|----------------------------|
D|-0(x8)-2(x8)-4(x8)-4(x4)-4\-|


Chorus:

G|--------------------------------------------|
D|--------------------------------------------|
A|--------------------------------------------|
D|-0(x8)-2(x8)-4(x8)-2(x8)-0(x8)-2(x8)-4(x16)-| X2


************************************

| \ Slide down


************************************

Almost there ...

Sign in to get your own page with links to favourite songs and more. You are just one click away...

Login with Facebook Login with Google