Log in

One click and you are in

Login with Facebook Login with Google

Why sign up and log in

Guitar Tabs Explorer
German Error Message guitar tabs for Everything is scary

Everything Is Scary tab by German Error Message

German Error Message guitar tabs for Everything is scary

Guitar tabs

Tuning: Standard (E A D G B E)

German Error Message - Everything Is Scary


Tuning: EGCGBD
Intro/Verse/Chorus:

D|-----0---0-0-0----0----0-----0---0-0-0---------------|
B|-----0---0-0-0----0----0-----0---0-0-0---------------|
G|-----0---0-0-0----0----0-----0---0-0-0--0--2--/4--0--|
C|-----4---4-4-4----4----0-----4---4-4-4---------------|
G|--5--5---5-5-5-4--4----0--2--2---2-2-2---------------|
E|---------------------0-------------------------------|

D|-----0---0-0-0----0----0-----0---0-0-0-----0---0-0-0--|
B|-----0---0-0-0----0----0-----0---0-0-0-----0---0-0-0--|
G|-----0---0-0-0----0----0-----0---0-0-0-----0---0-0-0--|
C|-----4---4-4-4----4----0-----4---4-4-4-----2---2-2-2--|
G|--5--5---5-5-5-4--4----0--2--2---2-2-2--0--0---0-0-0--|
E|---------------------0------------------3--3---3-3-3--|

D|-----0---0-0-0----0----0-----0---0-0-0---------------|
B|-----0---0-0-0----0----0-----0---0-0-0---------------|
G|-----0---0-0-0----0----0-----0---0-0-0--0--2--/4--0--|
C|-----4---4-4-4----4----0-----4---4-4-4---------------|
G|--5--5---5-5-5-4--4----0--2--2---2-2-2---------------|
E|---------------------0-------------------------------|

D|-----0---0-0-0----0----0-----0---0-0-0-----0---0-0-0--|
B|-----0---0-0-0----0----0-----0---0-0-0-----0---0-0-0--|
G|-----0---0-0-0----0----0-----0---0-0-0-----0---0-0-0--|
C|-----4---4-4-4----4----0-----4---4-4-4-----4---4-4-4--|
G|--5--5---5-5-5-4--4----0--2--2---2-2-2--2--2---2-2-2--|
E|---------------------0--------------------------------|

D|-----0---0-0-0----0---0-0-0------0-0-0----------------|
B|-----0---0-0-0----0---0-0-0------0-0-0----------------|
G|-----0---0-0-0----0---0-0-0------0-0-0----------------|
C|-----2---2-2-2----2---2-2-2------2-2-2--2~------------|
G|--0--0---0-0-0-0--0---0-0-0--0---0-0-0--0~------------|
E|--3--3---3-3-3-3--3---3-3-3--3---3-3-3--3~------------|

Outro:

D|--0~-----------0~------------0~-----------------------|
B|--0~-----------0~------------0~-----------------------|
G|--0~-----------0~------------0~-----------------------|
C|--4~-----------6~------------7~-----------------------|
G|--5~-----------7~------------9~-----------------------|
E|------------------------------------------------------|

D|--0~-----------0~-------------------------------------|
B|--0~-----------0~------------0~-----------------------|
G|--0~-----------0~------------0~-----------------------|
C|--4~-----------6~------------2~-----------------------|
G|--5~-----------7~------------0~-----------------------|
E|-----------------------------3~-----------------------|

D|--0~-----------0~------------0~-----------------------|
B|--0~-----------0~------------0~-----------------------|
G|--0~-----------0~------------0~-----------------------|
C|--4~-----------6~------------7~-----------------------|
G|--5~-----------7~------------9~-----------------------|
E|------------------------------------------------------|

D|--0~-----------0~-------------------------------------|
B|--0~-----------0~-------------------------------------|
G|--0~-----------0~-------------------------------------|
C|--4~-----------6~-------------------------------------|
G|--5~-----------7~-------------------------------------|
E|------------------------------------------------------|

Almost there ...

Sign in to get your own page with links to favourite songs and more. You are just one click away...

Login with Facebook Login with Google