Log in

One click and you are in

Login with Facebook Login with Google

Why sign up and log in

Guitar Tabs Explorer
Genesis bass tabs for The conqueror

Bass tabs

An adaptation of the piano bassline from this underappreciated song from the first Genesis album.

Intro
G |-----------------|
D |-----------------|
A |-----5--4--2-----|
E |--5-----------5--|

Verse
G |----------------------|
D |----------------------|
A |----------5--4--2-----|
E |-0-2-3-5-----------5--|

Chorus A
G |---------------------------|
D |---------------------------|
A |-----------------5-5-5-5-7-|
E |-7-7-7-7-7-7-7-7-----------|

Chorus B
G |---------------------------|
D |---------------------------|
A |-----------------5-5-5---7-|
E |-7-7-7-0-7-0-7-0-------7---|

Bridge
G |----------------|
D |----------------|
A |-------5----7---|
E |--7-------------|

Intro x2
Verse x6
Chorus A x1
Verse x1
Chorus A x1
Verse x6
Chorus A x1
Verse x1
Chorus A x1
Verse x5
Chorus B x1
Verse x1
Chorus B x1
Verse x5
Chorus B x1
Verse x1
Chorus B x1
Verse x1
Chorus B x1
Verse x1
Bridge x1
Intro x1
Verse x10 (fade out)

Almost there ...

Sign in to get your own page with links to favourite songs and more. You are just one click away...

Login with Facebook Login with Google