Guitar Tabs Explorer
Genesis bass tabs for Carpet crawlers (Ver. 2)

Carpet Crawlers bass tab


Be the first to rate


Ayreon77Author: Ayreon77

Jamplay guitar lessons

Carpet Crawlers bass tab by Genesis (Ver. 2)

"Carpet Crawlers" is was originally a song from Genesis 1974 concept album The Lamb Lies Down on Broadway. "Carpet Crawlers" was later also included on the live album "Seconds Out". These bass tabs shows you how to play that version.

Bass tabs

Print
  • Tuning: Standard tuning
  • Difficulty: Novice
--------------------------------------------------------------------------
                            Artist - Genesis
                          *******************
                         Song - Carpet Crawlers
                        ************************
                       Album - Seconds Out (1977)
                      ****************************
                          Tabbed By - Ayreon77
                         **********************
--------------------------------------------------------------------------
Tuning = Standard



INTRO
******
G|---7---7-|---9---9-|---7---7-|---9---9-|
D|---------|---------|---------|---------|
A|-5---5---|-7---7---|-5---5---|-7---7---|
E|---------|---------|---------|---------|


-------------------------
00:14
VERSE 1
********
G|---7---7-|---9---9-|---7---7-|---9---9-|---7---7-|---9---9-|---7---7-|---9---9-|
D|---------|---------|---------|---------|---------|---------|---------|---------|
A|-5---5---|-7---7---|-5---5---|-7---7---|-5---5---|-7---7---|-5---5---|-7---7---|
E|---------|---------|---------|---------|---------|---------|---------|---------|


G|---7---7-|---9---9-|---7---7-|---9---9-|
D|---------|---------|---------|---------|
A|-5---5---|-7---7---|-5---5---|-7---7---|
E|---------|---------|---------|---------|


-------------------------
00:42
CHORUS
*******
G|-----------------------------------------------------|-----|-------|-----|-----|
D|---4---4---4---4---7---7---5---5---7---7---5---5---4-|-2---|-2-----|-2---|-----|
A|-------------------------------------------------5---|---5-|---5-3-|---2-|-2---|
E|-2---2---2---2---5---5---3---3---5---5---3---3-------|-----|-------|-----|---5-|


-------------------------
01:13
VERSE 2
********
G|------------------|------------------|------------------|------------------|
D|-------------4----|-4--5--4-----5----|-------------4----|-4--5--4-----5----|
A|-------5--7-----7-|----------7-----5-|-------5--7-----7-|----------7-----5-|
E|-5--7-------------|------------------|-5--7-------------|------------------|


G|------------------|------------------|------------------|---------------|
D|-------------4----|-4--5--4-----5----|-------------4----|-4--5--4-----5-|
A|-------5--7-----7-|----------7-----5-|-------5--7-----7-|----------7----|
E|-5--7-------------|------------------|-5--7-------------|---------------|


-------------------------
01:41
CHORUS
*******
G|-----------------------------------------------------|-----|-------|-----|-----|
D|---4---4---4---4---7---7---5---5---7---7---5---5---4-|-2---|-2-----|-2---|-----|
A|-------------------------------------------------5---|---5-|---5-3-|---2-|-2---|
E|-2---2---2---2---5---5---3---3---5---5---3---3-------|-----|-------|-----|---5-|


-------------------------
02:12
VERSE 3
********
G|------------------|------------------|------------------|------------------|
D|-------------4----|-4--5--4-----5----|-------------4----|-4--5--4-----5----|
A|-------5--7-----7-|----------7-----5-|-------5--7-----7-|----------7-----5-|
E|-5--7-------------|------------------|-5--7-------------|------------------|


G|------------------|------------------|------------------|---------------|
D|-------------4----|-4--5--4-----5----|-------------4----|-4--5--4-----5-|
A|-------5--7-----7-|----------7-----5-|-------5--7-----7-|----------7----|
E|-5--7-------------|------------------|-5--7-------------|---------------|


-------------------------
02:39
CHORUS
*******
G|-----------------------------------------------------|-----|-------|-----|-----|
D|---4---4---4---4---7---7---5---5---7---7---5---5---4-|-2---|-2-----|-2---|-----|
A|-------------------------------------------------5---|---5-|---5-3-|---2-|-2---|
E|-2---2---2---2---5---5---3---3---5---5---3---3-------|-----|-------|-----|---5-|


-------------------------
03:10
VERSE 4
********
G|------------------|------------------|------------------|------------------|
D|-------------4----|-4--5--4-----5----|-------------4----|-4--5--4-----5----|
A|-------5--7-----7-|----------7-----5-|-------5--7-----7-|----------7-----5-|
E|-5--7-------------|------------------|-5--7-------------|------------------|


G|------------------|------------------|------------------|---------------|
D|-------------4----|-4--5--4-----5----|-------------4----|-4--5--4-----5-|
A|-------5--7-----7-|----------7-----5-|-------5--7-----7-|----------7----|
E|-5--7-------------|------------------|-5--7-------------|---------------|


-------------------------
03:39
CHORUS
*******
G|-----------------------------------------------------|-----|-------|-----|-----|
D|---4---4---4---4---7---7---5---5---7---7---5---5---4-|-2---|-2-----|-2---|-----|
A|-------------------------------------------------5---|---5-|---5-3-|---2-|-2---|
E|-2---2---2---2---5---5---3---3---5---5---3---3-------|-----|-------|-----|---5-|


-------------------------
04:09
VERSE 5
********
G|------------------|------------------|------------------|------------------|
D|-------------4----|-4--5--4-----5----|-------------4----|-4--5--4-----5----|
A|-------5--7-----7-|----------7-----5-|-------5--7-----7-|----------7-----5-|
E|-5--7-------------|------------------|-5--7-------------|------------------|


G|------------------|------------------|------------------|---------------|
D|-------------4----|-4--5--4-----5----|-------------4----|-4--5--4-----5-|
A|-------5--7-----7-|----------7-----5-|-------5--7-----7-|----------7----|
E|-5--7-------------|------------------|-5--7-------------|---------------|


-------------------------
04:37
CHORUS
*******
G|-----------------------------------------------------|-----|-------|-----|---|
D|---4---4---4---4---7---7---5---5---7---7---5---5---4-|-2---|-2-----|-2---|---|
A|-------------------------------------------------5---|---5-|---5-3-|---2-|---|
E|-2---2---2---2---5---5---3---3---5---5---3---3-------|-----|-------|-----|-5-|



ENJOY..............

Other versions of Carpet Crawlers

- Carpet crawlersBass tabs

Comment this song and these bass tabs

Do you have corrections, comments on the bass tabs, thoughts about the song or a message to the author? Write them below.