Log in

One click and you are in

Login with Facebook Login with Google

Why sign up and log in

Guitar Tabs Explorer
Generationals chords for It keeps you up

Guitar chords with lyrics

The Generationals

"It Keeps You Up"
A chord diagramC majorC

You are the first in your me parade.
You're getting older, they stay the same.
Your funny look and your jealous eyes.
They can't relate to a thing you say.


A chord diagramBb majorBb
When all in all is all we are
A chord diagramG+G
May not get you very far.

A chord diagramFF
It keeps you up at night,     A chord diagramA minorAm
How did they by their way into you?

A chord diagramA minorAm


A chord diagramC majorC
We heard you first on the radio
You complicate the material.
How can it be that we'd get there first?
It was a lie, it was a lie just to say the words.

bass:
D:-----7-7-------------------------|
A:-8-8------5-5--3-3---------------|
E:---------------------------------|

A chord diagramBb majorBb
When your grass is painted green,
A chord diagramG+G
You'll get the taste of what we mean.

A chord diagramG+G

E:------------6--5----------|
B:--6---6-6-6---------------|
G:--------------------------|
D:--------------------------|
A:--------------------------|
E:--------------------------|

bass:
   A chord diagramA minorAm
D:---7-10-------7-------------------------|
A:-8--------5-8---------7------7----------|
E:------------------5-8----5-8------------|

A chord diagramFF
It keeps you up at night,
A chord diagramA minorAm
They sleep inside your living room.

A chord diagramFF
You give just another diamond at the...  ??  (cant figure out what he's singing)
A chord diagramA minorAm
 ? ? ? ? ? ? ? ? ? when it's over you.


A chord diagramBb majorBb
We still remember things you said,
A chord diagramG+G
When your face was turning red.

 A chord diagramG+G

E:------------6--5----------|
B:--6---6-6-6---------------|
G:--------------------------|
D:--------------------------|
A:--------------------------|
E:--------------------------|

   A chord diagramC majorC
E:---------------13--12--10---8-------8--------------8---6---------|
B:-13--10-8-10-----------------8-8s10---10--------10---8---10-8-6--|
G:-----------------------------------------------------------------|
D:-----------------------------------------------------------------|
A:-----------------------------------------------------------------|
E:-----------------------------------------------------------------|

E:---------------13--12--10---8-------8----------|
B:-13--10-8-10-----------------8-8s10---10-------|
G:-----------------------------------------------|
D:-----------------------------------------------|
A:-----------------------------------------------|
E:-----------------------------------------------|

A chord diagramBb majorBb
And all and all is all we are
A chord diagramG+G
it may not get you very far

A chord diagramG+G

E:------------6--5----------|
B:--6---6-6-6---------------|
G:--------------------------|
D:--------------------------|
A:--------------------------|
E:--------------------------|

   A chord diagramA minorAm
E:---------------13--12--10---8-------8--------------8---6---------|
B:-13--10-8-10-----------------8-8s10---10--------10---8---10-8-6--|
G:-----------------------------------------------------------------|
D:-----------------------------------------------------------------|
A:-----------------------------------------------------------------|
E:-----------------------------------------------------------------|

Almost there ...

Sign in to get your own page with links to favourite songs and more. You are just one click away...

Login with Facebook Login with Google