Log in

One click and you are in

Login with Facebook Login with Google

Why sign up and log in

Guitar Tabs Explorer
Gemini Syndrome guitar tabs for Syndrome

Guitar tabs

Date last modified: November 28, 2014


Tuning: Drop A chord diagramBB (B,F#,B,E,G#,C#)
Riff 1
C#|----------------------------|
G#|----------------------------|
 E|----------------------------|
 B|----------------------------| x3
F#|----------------------------|
 B|-0-0-0-0-10\-0--0--0-6-5-3~-|
    * * * *

C#|------------------------|
G#|------------------------|
 E|------------------------|
 B|------------------------|
F#|---------3ph------------|
 B|-0-0-0-0-----0--0--0-6b-|
    * * * *


Riff 2   "I take a deep breath..."
C#|-------------------------------------------------|
G#|-------------------------------------------------|
 E|-------------------------------------------------|
 B|-0-0---0-3-3---3-7-7---7-10-10-10-10-10-10-10-10-| x3
F#|-0-0---0-3-3---3-5-5---5-8--8--8--8--8--8--8--8--|
 B|-0-0---0-3-3---3-5-5---5-8--8--8--8--8--8--8--8--|

C#|---------------------------------------|
G#|---------------------------------------|
 E|---------------------------------------|
 B|-0-0---0-3-3---3-7-7---7-7-7-7-7-7-7-7-|
F#|-0-0---0-3-3---3-5-5---5-5-5-5-5-5-5-5-|
 B|-0-0---0-3-3---3-5-5---5-5-5-5-5-5-5-5-|

Riff 3   "The strength I find, I find on the inside..."
C#|-----------------------------------------------------------------|
G#|-----------------------------------------------------------------|
 E|-----------------------------------------------------------------|
 B|-8-8-8-8-8-8-8-8-8-8-8-8-8-8-8-8-3-3-3-3-3-3-3-3-3-3-3-3-3h5p3p0-|
F#|-8-8-8-8-8-8-8-8-8-8-8-8-8-8-8-8-3-3-3-3-3-3-3-3-3-3-3-3-3h5p3p0-|
 B|-8-8-8-8-8-8-8-8-8-8-8-8-8-8-8-8-3-3-3-3-3-3-3-3-3-3-3-3-3h5p3p0-|

C#|---------------------------------------------------------------------------------|
G#|---------------------------------------------------------------------------------|
 E|---------------------------------------------------------------------------------|
 B|-0-0-0-0-0-0-0-0-0-0-0-0-0-0-0-0-10-10-10-10-10-10-10-10-10-10-10-10-10-10-10-10-|
F#|-0-0-0-0-0-0-0-0-0-0-0-0-0-0-0-0-10-10-10-10-10-10-10-10-10-10-10-10-10-10-10-10-|
 B|-0-0-0-0-0-0-0-0-0-0-0-0-0-0-0-0-10-10-10-10-10-10-10-10-10-10-10-10-10-10-10-10-|


Riff 3 (first ending) "And I will not apologize..."
C#|-------------------------------------------------------------|
G#|-------------------------------------------------------------|
 E|-------------------------------------------------------------|
 B|-8-8-8-8-8-8-8-8-8-8-8-8-8-8-8-8-3-3-3-3-3-3-3-3-3-3-3-3-0-3-|
F#|-8-8-8-8-8-8-8-8-8-8-8-8-8-8-8-8-3-3-3-3-3-3-3-3-3-3-3-3-0-3-|
 B|-8-8-8-8-8-8-8-8-8-8-8-8-8-8-8-8-3-3-3-3-3-3-3-3-3-3-3-3-0-3-|
                                                            *

Play Riff 1 x1
Play Riff 2 x1   "We are so scared..."
Play Riff 3 x2   "The strength I find, I find on the inside..."


Riff 3 (second ending) "I guess you didn't know, it's not a weakness..."
C#|-----------------------------------------------------------------|
G#|-----------------------------------------------------------------|
 E|-----------------------------------------------------------------|
 B|-8-8-8-8-8-8-8-8-8-8-8-8-8-8-8-8-3-3-3-3-3-3-3-3-3-3-3-3-3h5p3p0-|
F#|-8-8-8-8-8-8-8-8-8-8-8-8-8-8-8-8-3-3-3-3-3-3-3-3-3-3-3-3-3h5p3p0-|
 B|-8-8-8-8-8-8-8-8-8-8-8-8-8-8-8-8-3-3-3-3-3-3-3-3-3-3-3-3-3h5p3p0-|

C#|-------------------------------------------------------------|
G#|-------------------------------------------------------------|
 E|-------------------------------------------------------------|
 B|-2-2-2-2-2-2-2-2-2-2-2-2-0-2-1-1-1-1-1-1-1-1-1-1-1-1-1-1-1-1-|
F#|-2-2-2-2-2-2-2-2-2-2-2-2-0-2-1-1-1-1-1-1-1-1-1-1-1-1-1-1-1-1-|
 B|-2-2-2-2-2-2-2-2-2-2-2-2-0-2-1-1-1-1-1-1-1-1-1-1-1-1-1-1-1-1-|
                            *


Riff 4   "You will never know the depth of my syndrome..."
C#|-----------------------------------------------------|
G#|-----------------------------------------------------|
 E|-----------------------------------------------------|
 B|-----------------------------------------------------|
F#|-----------------------------------3ph---------------|
 B|-0-0-0-0-10\-0--0--0-6-5-3-0-0-0-0-----0--0--0-6-5-3-|
    * * * *                   * * * *

C#|--------------------------------------------------|
G#|--------------------------------------------------|
 E|--------------------------------------------------|
 B|--------------------------------------------------|
F#|-----------------------------------3ph------------|
 B|-0-0-0-0-10\-0--0--0-6-5-3-0-0-0-0-----0--0--0-6b-|
    * * * *                   * * * *


Riff 5   "Why do we try to die..."
C#|------------------------------------------------------|
G#|------------------------------------------------------|
 E|------------------------------------------------------|
 B|------------------------------------------------------|
F#|------------------------------------------------------|
 B|-3-0-0-10-0-0-5-0-0-3-0-3-5-3-0-0-10-0-0-5-0-0-5-0-5b-|

C#|------------------------------------------------------|
G#|------------------------------------------------------|
 E|------------------------------------------------------|
 B|------------------------------------------------------|
F#|------------------------------------------------------|
 B|-3-0-0-10-0-0-5-0-0-6-0-6-8-3-0-0-10-0-0-5-0-0-3-0-3b-|


Riff 6   "The pills will make it go away..."
C#|-----------------------------------------------------------|
G#|---------------------------2/------------------------------|
 E|---------------------------2/------------------------------|
 B|-11110----11110--/\-11110----------------------------------|
F#|-11110----11110--/\-11110----------------------------------|
 B|-11110----11110--/\-11110-------3-0-0-10-0-0-5-0-0-3-0-3-5-|
    ****     ****      ****

Play Riff 3 x3   "The strength I find, I find on the inside..."
                  (finish with second ending)


Ending   "Why do we try to die all the time..."
C#|------------------------------------------------------|
G#|------------------------------------------------------|
 E|------------------------------------------------------|
 B|------------------------------------------------------|
F#|------------------------------------------------------|
 B|-3-0-0-5-0-0-6-0-0-6-0-6-8-3-0-0-5-0-0-7-0-0-8-0-8-10-|

C#|----------------------------------------------------|
G#|----------------------------------------------------|
 E|----------------------------------------------------|
 B|-------------------------------------------0-0--0-0-|
F#|-------------------------------------------0-0--0-0-|
 B|-7-0-0-8-0-0-10-0-0-10-0-10-12-3-0-0-3-0-0-0-0--0-0-|
                                              * *  * *

Enjoy!!

Almost there ...

Sign in to get your own page with links to favourite songs and more. You are just one click away...

Login with Facebook Login with Google