Log in

One click and you are in

Login with Facebook Login with Google

Why sign up and log in

Guitar Tabs Explorer
Gemini Syndrome bass tabs for Stardust

Bass tabs with lyrics

Album: Lux
Year: 2013
Tabbed by: Ges613 (rockstar613@sbcglobal.net)


Key:
| /  slide up
| \  slide down
| h  hammer-on
| p  pull-off
| ~  vibrato
| +  harmonic
| x  Mute note
Intro: (Bass starts at 0:08)

 E|---------------------------------------------------------------|
 B|---------------------------------------------------------------|
F#|-----8------------------------------8--------------------------|
 B|-0-0----10-10-0--10-10-0--10-12-0-0----10-10-0--10-10-0--12-13-|

 E|---------------------------------------------------------|
 B|---------------------------------------------------------|
F#|-----8------------------------------11-11-11-11----------|
 B|-0-0----10-10-0--10-10-0--10-12-0-0-------------13-13-13-|


Verse 1: (listen close)
"I know this place.........."

 E|-------------------------------------------------------|
 B|-------------------------------------------------------|
F#|----------------------------11-11-11-------------------|     X2
 B|----10-12----10-12----10-12----------13-13-13----------|


Pre-Chorus: 0:33
"But I wouldnt change a thing...."
 E|-------------------------------|
 B|-------------------------------|
F#|-------------------------------|
 B|-0-0-0-0-0-0-0-0-0-0-0-0-0-0-0-|

"Wouldn't change a thing...."

 E|---------------------------------------------------------|
 B|---------------------------------------------------------|
F#|-0--0-0--0-0-0-0-0-0--0--0-0-0--0-0--0-0-0-0-0-0--0--0-0-|
 B|-0--0-0--0-0-0-0-0-0--0--0-0-0--0-0--0-0-0-0-0-0--0--0-0-|


"Its just a waking dream...."

 E|-------------------------------|
 B|-------------------------------|
F#|-------------------------------|
 B|-0-0-0-0-0-0-0-0-0-0-0-0-0-0-0-|


Chorus: 0:45
"Look at the wake............"

 E|---------------------------------------------------------------------|
 B|---------------------------------------------------------------------| x2
F#|---------------------------------------------------------------------|
 B|-8-8-8-8-8-8-8-8-3-3-3-3-3-3-3-3-7-7-7-7-7-7-7-0-0-0-0-10-10-10-10-0-|

 E|---------------------------|
 B|---------------------------|
F#|---------------------------|
 B|-8-8-8-8-8-8-8-0-10~---11~-|


Instrumental: (Distorted slightly) 1:07

 E|---------------------------------------------------------------|
 B|---------------------------------------------------------------|
F#|-----8------------------------------8--------------------------|
 B|-0-0----10-10-0--10-10-0--10-12-0-0----10-10-0--10-10-0--12-13-|

 E|---------------------------------------------------------|
 B|---------------------------------------------------------|
F#|-----8------------------------------11-11-11-11----------|
 B|-0-0----10-10-0--10-10-0--10-12-0-0-------------13-13-13-|


Verse 2: 1:15
"I Know this place........"

 E|-------------------------------------------------------|
 B|-------------------------------------------------------|
F#|----------------------------11-11-11-------------------|     X2
 B|----10-12----10-12----10-12----------13-13-13----------|


Pre-Chorus 1:32
"Now i cant recall a thing......"
 E|-------------------------------|
 B|-------------------------------|
F#|-------------------------------|
 B|-0-0-0-0-0-0-0-0-0-0-0-0-0-0-0-|

"Wouldn't change a thing...."

 E|---------------------------------------------------------|
 B|---------------------------------------------------------|
F#|-0--0-0--0-0-0-0-0-0--0--0-0-0--0-0--0-0-0-0-0-0--0--0-0-|
 B|-0--0-0--0-0-0-0-0-0--0--0-0-0--0-0--0-0-0-0-0-0--0--0-0-|



Chorus: 1:44
"Look at the wake............"

 E|---------------------------------------------------------------------|
 B|---------------------------------------------------------------------| x2
F#|---------------------------------------------------------------------|
 B|-8-8-8-8-8-8-8-8-3-3-3-3-3-3-3-3-7-7-7-7-7-7-7-0-0-0-0-10-10-10-10-0-|

 E|---------------------------|
 B|---------------------------|
F#|---------------------------|
 B|-8-8-8-8-8-8-8-0-10~---11~-|


Bridge: 2:05

 E|---------------------------|
 B|---------------------------|
F#|---------------------------|   X9
 B|-0--0-0-0--0-0-0-0--0--0-0-|

2:30

"But you wont be left behind............"
 E|---------------------------------------|
 B|---------------------------------------|
F#|---------------------------------------|
 B|-0-0-0-0-0-0-0-0-0-0-0-0-0-0-0-0-0-0-0-|

2:39-2:48(No bass then)

 E|---------------------------------|
 B|---------------------------------|
F#|---------------------------------|
 B|-8----3----3/7----7/0----10----0-|

 E|---------------------------------------------------------------------|
 B|---------------------------------------------------------------------|
F#|---------------------------------------------------------------------|
 B|-8-8-8-8-8-8-8-8-3-3-3-3-3-3-3-3-7-7-7-7-7-7-7-0-0-0-0-10-10-10-10-0-|

 E|-------------------------------------------------|
 B|-------------------------------------------------|
F#|-------------------------------------------------|
 B|-8-8-8-8-8-8-8-8-3-3-3-3-3-3-3-3-7-7-7-7-7-7-7-0-|

"Look at the the, look at the wake........."
 E|---------------------------------------------------------------------|
 B|---------------------------------------------------------------------| x2
F#|---------------------------------------------------------------------|
 B|-8-8-8-8-8-8-8-8-3-3-3-3-3-3-3-3-7-7-7-7-7-7-7-0-0-0-0-10-10-10-10-0-|


Outro: 3:35 (Distorted)

 E|---------------------------------------------------------------|
 B|---------------------------------------------------------------|
F#|-----8------------------------------8--------------------------|
 B|-0-0----10-10-0--10-10-0--10-12-0-0----10-10-0--10-10-0--12-13-|

 E|---------------------------------------------------------|
 B|---------------------------------------------------------|
F#|-----8------------------------------11-11-11-11----------|
 B|-0-0----10-10-0--10-10-0--10-12-0-0-------------13-13-13-|

(Hold for guitar parts then)
(Clean)3:44
 E|--------|
 B|--------|
F#|--------|
 B|--0-0---|


End



Please rate and comment. Please put a correction if i messed up.
 I learned this on electric then tried it on the bass. I think i got it right! ENJOY!!!!!!

Almost there ...

Sign in to get your own page with links to favourite songs and more. You are just one click away...

Login with Facebook Login with Google