Log in

One click and you are in

Login with Facebook Login with Google

Why sign up and log in

Guitar Tabs Explorer
Gemini Syndrome guitar tabs for Eternity

Guitar tabs with lyrics

Gemini Syndrome: Eternity


Facebook: https://www.facebook.com/MysticGuitar77
YouTube Channel: https://www.youtube.com/user/MysticGuitar77

Date last modified: August 21, 2015
Tuning: Drop A chord diagramBB (B,F#,B,E,G#,C#)


Riff 1
C#|----------------------------------------------------------------------------------|
G#|----------------------------------------------------------------------------------|
 E|----------------------------------------------------------------------------------|
 B|----------------------------------------------------------------------------------|
F#|---------15------17------15------15-15------17------15------17------15------18-18-|
 B|-0-0-h12----0h12----0h12----0h12-------0h12----0h12----0h12----0h12----0h13-------|

C#|----------------------------------------------------------------------------------|
G#|----------------------------------------------------------------------------------|
 E|----------------------------------------------------------------------------------|
 B|----------------------------------------------------------------------------------|
F#|---------15------17------15------15-15------17------15------18------18------18-18-|
 B|-0-0-h12----0h12----0h12----0h12-------0h12----0h12----0h13----0h13----0h13-------|


Riff 2
C#|----------------------------------------------------------|
G#|----------------------------------------------------------|
 E|----------------------------------------------13-13-13-13-|
 B|----------------------------------------------x--x--x--x--|
F#|----------------------------------------------11-11-11-11-|
 B|-0-0-0-0--0--0-0-0-0--0--3b-0-0--0--0-0-0-0-0-------------|

C#|--------------------------------------------------------------|
G#|--------------------------------------13-13-13-13-13/15-15-15-|
 E|--------------------------------------x--x--x--x--x--x--x--x--|
 B|--------------------------------------10-10-10-10-10/12-12-12-|
F#|--------------------------------------------------------------|
 B|-0-0-0-0--0--0-0-0-0--0--3b-0-0--0--0-------------------------|

Riff 3   "We take for granted all the beauty in our eyes..."
C#|------------------------------------------------------------------------------------|
G#|------------------------------------------------------------------------------------|
 E|-------------15----------12----------14------------------15----------17----------12-|
 B|-------------x-----------x-----------x-------------------x-----------x-----------x--|
F#|-------------13----------10----------12------------------13----------15----------10-|
 B|-0--0-0--0-x----0-0--0-x----0-0--0-x---------0--0-0--0-x----0-0--0-x----0-0--0-x----|

Play Riff 3 x2   "With all the torment and the struggle and the strife..."


Riff 4   "I wish I had nothing to say..." (Guitar 1)
C#|------------------|
G#|------------------|
 E|------------------|
 B|-0~---------------|
F#|-0~---------------|
 B|-0~---------------|


Riff 4 (Guitar 2) w/ wah
C#|-------------------------------------------------------------------|
G#|-------------------------------------------------------------------|
 E|-7-7-7-8-8-8-5-5-5-7-7-7-8-8-7-7-7-7-7-8-8-8/13-13-13-13-13-13/19~-|
 B|-x-x-x-x-x-x-x-x-x-x-x-x-x-x-x-x-x-x-x-x-x-x-x--x--x--x--x--x--x---|
F#|-5-5-5-6-6-6-3-3-3-5-5-5-6-6-5-5-5-5-5-6-6-6/11-11-11-11-11-11/17~-|
 B|-------------------------------------------------------------------|


Riff 5   "Every day is a new dream..."
C#|-------------------------------------------------------------------------|
G#|-------------------------------------------------------------------------|
 E|-------------------------------------------------------------------------|
 B|-8-8-8-8-8-8-8-8-8-8-8-8-8-8-8-8-10-10-10-10-10-10-10-10-3-3-3-3-3-3-3-3-|-------|
F#|-8-8-8-8-8-8-8-8-8-8-8-8-8-8-8-8-10-10-10-10-10-10-10-10-3-3-3-3-3-3-3-3-|       |
 B|-8-8-8-8-8-8-8-8-8-8-8-8-8-8-8-8-10-10-10-10-10-10-10-10-3-3-3-3-3-3-3-3-|       |
                                                                                    |
C#|-----------------------------------------------------------------|               | x2
G#|-----------------------------------------------------------------|               |
 E|-----------------------------------------------------------------|               |
 B|-0-0-0-0-0-0-0-0-0-0-0-0-0-0-0-0-5-5-5-5-5-5-5-5-7-7-7-7-7-7-7-7-|---------------|
F#|-0-0-0-0-0-0-0-0-0-0-0-0-0-0-0-0-5-5-5-5-5-5-5-5-7-7-7-7-7-7-7-7-|
 B|-0-0-0-0-0-0-0-0-0-0-0-0-0-0-0-0-5-5-5-5-5-5-5-5-7-7-7-7-7-7-7-7-|

         "Welcome to eternity..."
C#|----------------------------------------------------|
G#|----------------------------------------------------|
 E|----------------------------------------------------|
 B|-8-8-8-8-8-8-8-8-8-8-8-8-8-8-8-8-5-5-5-5-5-5-5-5-7~-|
F#|-8-8-8-8-8-8-8-8-8-8-8-8-8-8-8-8-5-5-5-5-5-5-5-5-7~-|
 B|-8-8-8-8-8-8-8-8-8-8-8-8-8-8-8-8-5-5-5-5-5-5-5-5-7~-|

Play Riff 2 x1
Play Riff 3 x2   "We make assumptions that are only based on lies..."
Play Riff 4 x1   "I wish I had nothing to say..."
Play Riff 5 x1   "Every day is a new dream..."


Riff 6
C#|-----------------------------------------------------------------|
G#|-----------------------------------------------------------------|
 E|-----------------------------------------------------------------|
 B|-----------------------------------------------------------------|--------------------------|
F#|-5-5-5-5-5-5-5-5-5-5-5-5-5-5-5-5-7-7-7-7-7-7-7-7-7-7-7-7-7-7-7-7-|                          |
 B|-0-0-0-0-0-0-0-0-0-0-0-0-0-0-0-0-0-0-0-0-0-0-0-0-0-0-0-0-0-0-0-0-|                          |
    * * * * * * * * * * * * * * * * * * * * * * * * * * * * * * * *                            |
                                                                                               |
C#|---------------------------------------------------------------------------------|          | x2
G#|---------------------------------------------------------------------------------|          |
 E|---------------------------------------------------------------------------------|          |
 B|---------------------------------------------------------------------------------|----------|
F#|-8-8-8-8-8-8-8-8-8-8-8-8-8-8-8-8-10-10-10-10-10-10-10-10-13-13-13-13-12-12-12-12-|
 B|-0-0-0-0-0-0-0-0-0-0-0-0-0-0-0-0-0--0--0--0--0--0--0--0--0--0--0--0--0--0--0--0--|
    * * * * * * * * * * * * * * * * *  *  *  *  *  *  *  *  *  *  *  *  *  *  *  *

C#|-----------------------------------------------------------------|
G#|-----------------------------------------------------------------|
 E|-7-7-7-7-7-7-7-7-7-7-7-7-7-7-7-7-9-9-9-9-9-9-9-9-9-9-9-9-9-9-9-9-|
 B|-x-x-x-x-x-x-x-x-x-x-x-x-x-x-x-x-x-x-x-x-x-x-x-x-x-x-x-x-x-x-x-x-|
F#|-5-5-5-5-5-5-5-5-5-5-5-5-5-5-5-5-7-7-7-7-7-7-7-7-7-7-7-7-7-7-7-7-|
 B|-----------------------------------------------------------------|

C#|-------------------------------------------------------------------------------------------------|
G#|-------------------------------------------------------------------------------------------------|
 E|-10-10-10-10-10-10-10-10-10-10-10-10-10-10-10-10-12-12-12-12-12-12-12-12-15-15-15-15-14-14-14-14-|
 B|-x--x--x--x--x--x--x--x--x--x--x--x--x--x--x--x--x--x--x--x--x--x--x--x--x--x--x--x--x--x--x--x--|
F#|-8--8--8--8--8--8--8--8--8--8--8--8--8--8--8--8--10-10-10-10-10-10-10-10-13-13-13-13-12-12-12-12-|
 B|-------------------------------------------------------------------------------------------------|

Play Riff 4 x1   "How could you have nothing to say..."

Final chorus lead-in:
C#|-------------------|
G#|-------------------|
 E|-------------------|
 B|-8~-----10~-----3~-| rest of the chorus is the same as the previous ones
F#|-8~-----10~-----3~-|
 B|-8~-----10~-----3~-|

Play Riff 5 x2   "Every day is a new dream..." (play the part that gets played twice x4 this time)
Play Riff 2 x1   "Eternity!"


Ending
C#|--------------------------------------------------------------------------------------|
G#|--------------------------------------------------------------------------------------|
 E|--------------------------------------------------------------------------------------|
 B|--------------------------------------------------------------------------------------|
F#|------17------15------17------15-----15-15------17------15------17------15------18-18-|
 B|-0h12----0h12----0h12----0h12----0h12------0h12----0h12----0h12----0h12----0h13-------|

C#|--------------------------------------------------------------------------------------------|
G#|--------------------------------------------------------------------------------------------|
 E|--------------------------------------------------------------------------------------------|
 B|--------------------------------------------------------------------------------------------|
F#|------17------15------17------15------15-15------17------15------18------18------18-18------|
 B|-0h12----0h12----0h12----0h12----0h12-------0h12----0h12----0h13----0h13----0h13-------0--0-|

Enjoy!!

↓ Add and view comments below ↓

What do you think about this song and these tabs?

Add your comments, questions, rant or a thumbs up below.

Almost there ...

Sign in to get your own page with links to favourite songs and more. You are just one click away...

Login with Facebook Login with Google