Log in

One click and you are in

Login with Facebook Login with Google

Why sign up and log in

Guitar Tabs Explorer
Gemini Syndrome guitar tabs for Alive inside

Guitar tabs with lyrics

Tuning: Drop A chord diagramA majorA (A chord diagramA majorA A chord diagramE MajorE A chord diagramA majorA A chord diagramD MajorD A chord diagramF#F# A chord diagramBB)


Intro
 B|------------------------------|
F#|------------------------------|
 D|------------------------------|
 A|-4-4-4--4-4--4----------------|
 E|-4-4-4--4-4--4--4-5-4-3-4-2---|
 A|-4-4-4--4-4--4--4-5-4-3-4---3-|
                   * * * * *
Riff 1
 B|-----------------------------------------------------------|
F#|-----------------------------------------------------------|
 D|-----------------------------------------------------------|
 A|-5-4--4--4-5-4-5-4--4--4-5-4-5-4--4--4-5-4---------3-3-3-3-|
 E|-5-4--4--4-5-4-5-4--4--4-5-4-5-4--4--4-5-4-0-0-0-0-3-3-3-3-|
 A|-5-4--4--4-5-4-5-4--4--4-5-4-5-4--4--4-5-4-0-0-0-0-3-3-3-3-|
                                              * * * *

 B|------------------------------------------------------------|
F#|------------------------------------------------------------|
 D|------------------------------------------------------------|
 A|-5-4--4--4-5-4-5-4--4--4-5-4-5-4--4--4-5-4-/9-9-9-9-5-5-5-5-|
 E|-5-4--4--4-5-4-5-4--4--4-5-4-5-4--4--4-5-4-/9-9-9-9-5-5-5-5-|
 A|-5-4--4--4-5-4-5-4--4--4-5-4-5-4--4--4-5-4-/9-9-9-9-5-5-5-5-|


Riff 2   "You want to fly..." (starts with a big pickslide)
 B|--------------------------------------------------------------|
F#|--------------------------------------------------------------|
 D|--------------------------------------------------------------|
 A|--------------------------------------------------------------|
 E|--------------------------------------------------------------|
 A|-5-4-2-4--2-4-2-5-4-2-4--2-4-2-5-4-2-4--2-4-2-0-0-0-0-3-3-3-3-|
                                                 * * * *

 B|------------------------------------------------------------------|
F#|------------------------------------------------------------------|
 D|------------------------------------------------------------------|
 A|------------------------------------------------------------------|
 E|------------------------------------------------------------------|
 A|-5-4-2-4b--2-4-2-5-4-2-4b--2-4-2-5-4-2-4b--2-4-2-/9-9-9-9-5-5-5-5-|

Riff 3   "And say goodbye..."
 B|-----------------------------------------------------------------|
F#|-----------------------------------------------------------------|
 D|-----------------------------------------------------------------|
 A|-----------------------------------------------------------------|
 E|-----------------------------------------------------------------|
 A|-5-5-5-5-2-2-2-2-4-4-4-4-4-4-4-4-5-5-5-5-7-7-7-7-4-4-4-4-4-4-4-4-|

 B|----------------------------------------------------|
F#|----------------------------------------------------|
 D|----------------------------------------------------|
 A|-------------------------------------------------9~-|
 E|---------------------------------0-0-0-0-0-0-0-0-7~-|
 A|-5-5-5-5-2-2-2-2-4-4-4-4-4-4-4-4-0-0-0-0-0-0-0-0-7~-|


Riff 4   "It's okay to feel alive inside..."
 B|---------------------------------------------------------------------------------|
F#|---------------------------------------------------------------------------------|
 D|---------------------------------------------------------------------------------|
 A|---------------------------------11-11-11-11-11-11-11-11-11-11-11-11-11-11-11-11-| x2
 E|-0-0-0-0-0-0-0-0-0-0-0-0-0-0-0-0-9--9--9--9--9--9--9--9--12-12-12-12-12-12-12-12-|
 A|-0-0-0-0-0-0-0-0-0-0-0-0-0-0-0-0-9--9--9--9--9--9--9--9--9--9--9--9--9--9--9--9--|

 B|-----------------------------------------------------------------|
F#|-----------------------------------------------------------------|
 D|-----------------------------------------------------------------|
 A|-7-7-7-7-7-7-7-7-9-9-9-9-9-9-9-9---------------------------------|
 E|-5-5-5-5-5-5-5-5-5-5-5-5-5-5-5-5-0-0-0-0-0-0-0-0-0-0-0-0-0-0-0-0-|
 A|-5-5-5-5-5-5-5-5-5-5-5-5-5-5-5-5-0-0-0-0-0-0-0-0-0-0-0-0-0-0-0-0-|

 B|--------------------------------------------------------------------|
F#|--------------------------------------------------------------------|
 D|-------------------------------------------------4-4-4-4-4-4-4-4----|
 A|-3-3-3-3-3-3-3-3-5-5-5-5-5-5-5-5-7-7-7-7-7-7-7-7-5-5-5-5-5-5-5-5-3\-|
 E|-3-3-3-3-3-3-3-3-3-3-3-3-3-3-3-3-3-3-3-3-3-3-3-3-3-3-3-3-3-3-3-3-3\-|
 A|-3-3-3-3-3-3-3-3-3-3-3-3-3-3-3-3-3-3-3-3-3-3-3-3-3-3-3-3-3-3-3-3-3\-|

Play Riff 1 x0.5
Play Riff 2 x1   "We dance on the ledge..."
Play Riff 3 x1   "Than all this s***..."
Play Riff 4 x1   "It's okay to feel alive inside..."


Riff 5
 B|--------------------------------------------------------------------------------|
F#|--------------------------------------------------------------------------------|
 D|--------------------------------------------------------------------------------|
 A|--------------------------------------------------------------------------------|
 E|--------------------------------------------------------------------------------|
 A|-5-5-4--5-5-4--5-5-4--5-5-4--5-5-4--5-5-4--5-5-4--5-5-4--5-5-4--0-0-0-0-2-2-3-3-|
    * *    * *    * *    * *    * *    * *    * *    * *    * *    * * * * * * * *

 B|-----------------------------------------------------------------------------------------|
F#|-----------------------------------------------------------------------------------------|
 D|-----------------------------------------------------------------------------------------|
 A|-----------------------------------------------------------------------------------------|
 E|-----------------------------------------------------------------------------------------|
 A|-5-5-4--5-5-4--5-5-4--5-5-4--5-5-4--5-5-4--5-5-4--5-5-4--5-5-5-5-5-5-5-5-2-2-2-2-2-2-2-2-|
    * *    * *    * *    * *    * *    * *    * *    * *    * * * * * * * * * * * * * * * *


Riff 6
 B|------------------------------------------------------------------------------------|
F#|------------------------------------------------------------------------------------|
 D|------------------------------------------------------------------------------------|
 A|------------------------------------------------------------------------------------|
 E|----------------------------------------------------------------3-3-3-3-3-3-6-6-6-6-|
 A|-1-1-0--1-1-0--1-1-0--1-1-0--1-1-0--1-1-0--1-1-0--1-1-0--1-1-0----------------------|
    * *    * *    * *    * *    * *    * *    * *    * *    * *    * * * * * * * * * *

 B|-----------------------------------------------------------------------------------------|
F#|-----------------------------------------------------------------------------------------|
 D|-----------------------------------------------------------------------------------------|
 A|-----------------------------------------------------------------------------------------|
 E|--------5-5-5---------5-5-5---------5-5-5---------5-5-5--5-5-5-5-5-5-5-5-6-6-6-6-3-3-3-3-|
 A|-1-1-0---------1-1-0---------1-1-0---------1-1-0-----------------------------------------|
    * *    * *    * *    * *    * *    * *    * *    * *    * * * * * * * * * * * * * * * *

Play Riff 3 x1   "How do you like me now!!"
Play Riff 4 x1   "It's okay to feel alive inside..." (cuts off before the ending slide this time)
Play Riff 1 x0.5


Ending   "We are alive inside!!"
 B|------------------------------------------------------------------------------|
F#|------------------------------------------------------------------------------|
 D|------------------------------------------------------------------------------|
 A|----------------------------------------------------------------4-4-4--4-4--4-|
 E|----------------------------------------------------------------4-4-4--4-4--4-|
 A|-5-5-4--5-5-4--5-5-4--5-5-4--5-5-4--5-5-4--5-5-4--5-5-4--/9-/5--4-4-4--4-4--4-|
    * *    * *    * *    * *    * *    * *    * *    * *

Enjoy!!

Almost there ...

Sign in to get your own page with links to favourite songs and more. You are just one click away...

Login with Facebook Login with Google