Hashir Shelanoo by Geffen Aviv

Hashir Shelanoo chords by Geffen Aviv

Guitar chords with lyrics

this one of aviv geffen called : "hashir shelanoo" (our song)

it is really good one of him and its really simple

verse:

A , A7 , F#M ,D , Bm , D ,A4-A

chorse:

G#m , C#m , G#m ,C#m
A , A , D -E

you go back to the begining
play it over and then come the solo

well i am not that sure about that solo
part 1 of the solo is like that
1:-------------------------------------------------------------
2:-------------------------------------------------------------
3:-------------------------------------------------------------
4:--------------10--12--10-------------------------------------------
5:--------10 -12-----------12----------------------------------------
6:--10--12--------------------------------------------------------

you play it twice
and this is part 2
1:-----------------------------------------------------------11-10-11---
2:----------10 11 10-11-10-11-10-11-10-11-10--------------------
3:----10-12---------------------------------12-10-------10----------
4:-------------------------------------------------12-10---12---------
5:---------------------------------------------------------------
6:--------------------------------------------------------------

and then you play the chorse till the end of the song

Find guitar tabs and chords

A B C D E F G H I J K L M N O P Q R S T U V W X Y Z #