Log in

One click and you are in

Login with Facebook Login with Google

Why sign up and log in

Guitar Tabs Explorer
Gbh bass tabs for I am the hunted

Bass tabs

GBH - I AM THE HUNTED

Tabbed by: Rottney (reconssuck)
E-mail: reconssuck@hotmail.de

Album: City Baby Attacked By Rats (1982)


[Intro] x2

G|--------------------------|--------------------------|
D|--------------------------|--------------------------|
A|-15-15-15-15-15-15-15-15--|-12-12-12-12-12-12-12-12--|
E|--------------------------|--------------------------|


[Intro Riff 2] x4

G|---------------------------|
D|---------------------------|
A|-3-3-3-3-3-3-3-3-3-3-3-3-3-|
E|---------------------------|


[Intro Riff 3] x2

G|------------------|------------------|
D|------------------|------------------|
A|-3-3-3-3-3-3-3-3--|-0-0-0-0-0-0-0-0--|
E|------------------|------------------|

[Pre Verse] x2

G|-----------------|-----------|-----------------|------------|
D|-----------------|-----------|-----------------|------------|
A|-7-7-7-7-7-7-7-7-|-7-7-7-7-5-|-7-7-7-7-7-7-7-7-|-7-7-7-7-5--|
E|-----------------|-----------|-----------------|------------|


[Verse] x2

G|-----------------|-----------------|-----------------|----------------|
D|-----------------|-----------------|-----------------|----------------|
A|-7-7-7-7-7-7-7-7-|-7-7-7-7-7-7-7-7-|-5-5-5--10-10-10-|-7-7-7-7-7-7-7--|
E|-----------------|-----------------|-----------------|----------------|


[Chorus]

G|-----------------|----------------------|
D|-----------------|----------------------|
A|-----------------|-5--------------------|
E|-7-7-7-7-7-7-7-7-|---7-5-5-5-5-5-5-5-5--|

G|-----------------|-----------|-----------------|------------|
D|-----------------|-----------|-----------------|------------|
A|-7-7-7-7-7-7-7-7-|-7-7-7-7-5-|-7-7-7-7-7-7-7-7-|-7-7-7-7-5--|
E|-----------------|-----------|-----------------|------------|

G|-----------------|----------------------|
D|-----------------|----------------------|
A|-----------------|-5--------------------|
E|-7-7-7-7-7-7-7-7-|---7-5-5-5-5-5-5-5-5--|

G|-----------------|-----------|-----------------|------------|
D|-----------------|-----------|-----------------|------------|
A|-7-7-7-7-7-7-7-7-|-7-7-7-7-5-|-7-7-7-7-7-7-7-7-|-7-7-7-7-5--|
E|-----------------|-----------|-----------------|------------|


[Verse] x2

G|-----------------|-----------------|-----------------|----------------|
D|-----------------|-----------------|-----------------|----------------|
A|-7-7-7-7-7-7-7-7-|-7-7-7-7-7-7-7-7-|-5-5-5--10-10-10-|-7-7-7-7-7-7-7--|
E|-----------------|-----------------|-----------------|----------------|


[Chorus]

G|-----------------|----------------------|
D|-----------------|----------------------|
A|-----------------|-5--------------------|
E|-7-7-7-7-7-7-7-7-|---7-5-5-5-5-5-5-5-5--|

G|-----------------|-----------|-----------------|------------|
D|-----------------|-----------|-----------------|------------|
A|-7-7-7-7-7-7-7-7-|-7-7-7-7-5-|-7-7-7-7-7-7-7-7-|-7-7-7-7-5--|
E|-----------------|-----------|-----------------|------------|

G|-----------------|----------------------|
D|-----------------|----------------------|
A|-----------------|-5--------------------|
E|-7-7-7-7-7-7-7-7-|---7-5-5-5-5-5-5-5-5--|

G|-----------------|-----------|-----------------|------------|
D|-----------------|-----------|-----------------|------------|
A|-7-7-7-7-7-7-7-7-|-7-7-7-7-5-|-7-7-7-7-7-7-7-7-|-7-7-7-7-5--|
E|-----------------|-----------|-----------------|------------|


[Pre Verse] x2

G|-----------------|-----------|-----------------|------------|
D|-----------------|-----------|-----------------|------------|
A|-7-7-7-7-7-7-7-7-|-7-7-7-7-5-|-7-7-7-7-7-7-7-7-|-7-7-7-7-5--|
E|-----------------|-----------|-----------------|------------|


[Verse] x2

G|-----------------|-----------------|-----------------|----------------|
D|-----------------|-----------------|-----------------|----------------|
A|-7-7-7-7-7-7-7-7-|-7-7-7-7-7-7-7-7-|-5-5-5--10-10-10-|-7-7-7-7-7-7-7--|
E|-----------------|-----------------|-----------------|----------------|


[Chorus]

G|-----------------|----------------------|
D|-----------------|----------------------|
A|-----------------|-5--------------------|
E|-7-7-7-7-7-7-7-7-|---7-5-5-5-5-5-5-5-5--|

G|-----------------|-----------|-----------------|------------|
D|-----------------|-----------|-----------------|------------|
A|-7-7-7-7-7-7-7-7-|-7-7-7-7-5-|-7-7-7-7-7-7-7-7-|-7-7-7-7-5--|
E|-----------------|-----------|-----------------|------------|

G|-----------------|----------------------|
D|-----------------|----------------------|
A|-----------------|-5--------------------|
E|-7-7-7-7-7-7-7-7-|---7-5-5-5-5-5-5-5-5--|

G|-----------------|-----------|-----------------|------------|
D|-----------------|-----------|-----------------|------------|
A|-7-7-7-7-7-7-7-7-|-7-7-7-7-5-|-7-7-7-7-7-7-7-7-|-7-7-7-7-5--|
E|-----------------|-----------|-----------------|------------|


[Verse] x2

G|-----------------|-----------------|-----------------|----------------|
D|-----------------|-----------------|-----------------|----------------|
A|-7-7-7-7-7-7-7-7-|-7-7-7-7-7-7-7-7-|-5-5-5--10-10-10-|-7-7-7-7-7-7-7--|
E|-----------------|-----------------|-----------------|----------------|


[Chorus] x2

G|-----------------|----------------------|
D|-----------------|----------------------|
A|-----------------|-5--------------------|
E|-7-7-7-7-7-7-7-7-|---7-5-5-5-5-5-5-5-5--|

G|-----------------|-----------|-----------------|------------|
D|-----------------|-----------|-----------------|------------|
A|-7-7-7-7-7-7-7-7-|-7-7-7-7-5-|-7-7-7-7-7-7-7-7-|-7-7-7-7-5--|
E|-----------------|-----------|-----------------|------------|

G|-----------------|----------------------|
D|-----------------|----------------------|
A|-----------------|-5--------------------|
E|-7-7-7-7-7-7-7-7-|---7-5-5-5-5-5-5-5-5--|

G|-----------------|-----------|-----------------|------------|
D|-----------------|-----------|-----------------|------------|
A|-7-7-7-7-7-7-7-7-|-7-7-7-7-5-|-7-7-7-7-7-7-7-7-|-7-7-7-7-5--|
E|-----------------|-----------|-----------------|------------|


That's all

Almost there ...

Sign in to get your own page with links to favourite songs and more. You are just one click away...

Login with Facebook Login with Google