Abcdefu by GAYLE

Abcdefu tab by GAYLE

Guitar tabs

  • Capo on 4th
Key: E

Intro:

e|-0---0-0-------0-------0-----------------------------------------|
B|---1-----1---3---0-0-3--0--1-1---1-1---------1-1-----------------|
G|---0-------------0-------------2-----2-0-0-0---------------------|
D|---2---------------------------2---------3-----------------------|
A|---3-------3-------------------0---------------------------------|
E|-----------------0-----------------------1-----------------------|



e|-0---0-0-------0-------0-----------------------------------------|
B|---1-----1---3---0-0-3--0--1-1-----1-1-1-------1-1---------------|
G|---0-------------0-------------2-2-------2-0-0-------------------|
D|---2---------------------------2-------------3-------------------|
A|---3-------3-------------------0---------------------------------|
E|-----------------0---------------------------1-------------------|


Verse 1:

e|---------------0-------------------------0-----------------------|
B|-----1-1-1-1-1---0-0---0-1-----1-1-1-1-1---0-0---0---------------|
G|---0-----------------2-------------------------2---2-0-----------|
D|-----------------------------2-----------------------------------|
A|-3-------------------------0-------------------------------------|
E|---------x-------0-----x-----------x-------1-----x---------------|

e|---------------0-------------------------------------------------|
B|-----1-1-1-1-1---0-0---0-1---------------------------------------|
G|---0-----------------2-----2-0-2-0-2-0-2-0-0h2-------------------|
D|---------------------------2-------------------3-----3-----------|
A|-3-------------------------0---------------------------3---------|
E|---------x-------0-----x-----------x-------1-----x-1-------------|

e|-------------0---------------------------0-----------------------|
B|-----1-1-1-1---0-----0---0-1-----1-1-1-1---0-----0---0-----------|
G|---0---------------2---2-----------------------2---2---2-0-------|
D|-------------------------------2---------------------------------|
A|-3---------------------------0-----------------------------------|
E|---------x-------0-------x-----------x-------1-------x-----------|

e|-------------0---------------------------------------------------|
B|-----1-1-1-1---0-----0--0-1--------------------------------------|
G|---0---------------2--2-----2-0-2-0-2-0-2-0-0h2------------------|
D|----------------------------2-------------------3-----3----------|
A|-3--------------------------0---------------------------3--------|
E|---------x-------0------x-----------x-------1-----x-1------------|

e|-----------0-3-----3-3-3-3-3/5-0----------1-1-1---0--------------|
B|-----1-1-1-------------------------3---1--1---------3-1----------|
G|---0-------------0------------------------2----------------------|
D|------------------------------------------3----------------------|
A|-3-------------------------------0--------3----------------------|
E|---------------0--------------------------1----------------------|

e|-----------0-3-----3-0-3-3/5-0-------0-0-0-0-0-------------------|
B|-----1-1-1-----------------------3-------1-----------------------|
G|---0-------------0-----------------2-----2-----------------------|
D|-----------------------------------------------------------------|
A|-3-----------------------------0---------------------------------|
E|---------------0-------------------------1-----------------------|

Chorus:

e|-0---0-0-------0-------0-----------------------------------------|
B|---1-----1---3---0-0-3--0--1-1---1-1---------1-1-----------------|
G|---0-------------0-------------2-----2-0-0-0---------------------|
D|---2---------------------------2---------3-----------------------|
A|---3-------3-------------------0---------------------------------|
E|---------x-------0------x----------x-----1-----x-----------------|

e|-0---0-0-------0-------0-----------------------------------------|
B|---1-----1---3---0-0-3--0--1-1-----1-1-1-------1-1---------------|
G|---0-------------0-------------2-2-------2-0-0-------------------|
D|---2---------------------------2-------------3-------3-----------|
A|---3-------3-------------------0---------------------------------|
E|---------x-------0------x--------------x-----1---x-1-------------|

e|-----------0-3-----3-3-3/5-0-------0-0-0-0-0-0-------------------|
B|-------1h3-----------------------------1-------1-----------------|
G|-----0-----------0-------------2-------2-------0-----------------|
D|---2-----------------------------2-------------2-----------------|
A|-3---------------------------0-----------------3-----------------|
E|-------x-------0-----x-------------x---1---x---------------------|

Verse 2:

e|-------------0---------------------------0-----------------------|
B|-----1-1-1-1---0-----0---0-1-----1-1-1-1---0-----0---------------|
G|-------------------2---2-----------------------2---2-2/4-2-0-----|
D|-------------------------------2---------------------------------|
A|-----------------------------0-----------------------------------|
E|---------x-------0-------x-----------x-------1-------------------|

e|-------------0---------------------------------------------------|
B|-----1-1-1-1---0-----0--0-1--------------------------------------|
G|---0---------------2--2-----2-0-2-0-2-0-2-0-0h2------------------|
D|----------------------------2-------------------3-----3----------|
A|-3--------------------------0---------------------------3--------|
E|---------x-------0------x-----------x-------1-----x-1------------|

e|-----------0-3-----3-3-3-3-3/5-0----------1-1-1---0--------------|
B|-----1-1-1-------------------------3---1--1---------3-1----------|
G|---0-------------0------------------------2----------------------|
D|------------------------------------------3----------------------|
A|-3-------------------------------0--------3----------------------|
E|---------x-----0-------x-------------x----1-----x----------------|

e|-----------0-3-----3-0-3-3/5-0-------0-0-0-0-0-------------------|
B|-----1-1-1-----------------------3-------1-----------------------|
G|---0-------------0-----------------2-----2-----------------------|
D|-----------------------------------------------------------------|
A|-3-----------------------------0---------------------------------|
E|---------------0-------------------------1-----------------------|

Chorus:

e|-0---0-0-------0-------0-----------------------------------------|
B|---1-----1---3---0-0-3--0--1-1---1-1---------1-1-----------------|
G|---0-------------0-------------2-----2-0-0-0---------------------|
D|---2---------------------------2---------3-----------------------|
A|---3-------3-------------------0---------------------------------|
E|---------x-------0------x----------x-----1-----x-----------------|

e|-0---0-0-------0-------0-----------------------------------------|
B|---1-----1---3---0-0-3--0--1-1-----1-1-1-------1-1---------------|
G|---0-------------0-------------2-2-------2-0-0-------------------|
D|---2---------------------------2-------------3-------3-----------|
A|---3-------3-------------------0---------------------------------|
E|---------x-------0------x--------------x-----1---x-1-------------|

e|-----------0-3-----3-3-3/5-0-------0-0-0-0-0-0-------------------|
B|-------1h3-----------------------------1-------1-----------------|
G|-----0-----------0-------------2-------2-------0-----------------|
D|---2-----------------------------2-------------2-----------------| x2
A|-3---------------------------0-----------------3-----------------|
E|-------x-------0-----x-------------x---1---x---------------------|

Outro:

e|-----0-0-------0-------0-----------------------------------------|
B|---------1---3---0-0-3--0--1-1---1-1---------1-1-----------------|
G|-----------------0-------------2-----2-0-0-0---------------------|
D|-------------------------------2---------3-----------------------|
A|-----------3-------------------0---------------------------------|
E|-----------------0-----------------------1-----------------------|

e|-0---0-0-------0-------0-----------------3/5-3-3-0-0-------------|
B|---1-----1---3---0-0-3--0--1-1-----1-1-1-------------3-1---------|
G|---0-------------0-------------2-2-------------2---0-------------|
D|---2---------------------------2---------------3-----------------|
A|---3-------3-------------------0-------------------3-------------|
E|-----------------0-----------------------------1-----------------|


☠☠☠☠☠☠☠☠☠☠☠☠☠☠☠☠☠☠☠☠☠☠☠☠☠☠☠☠☠☠☠☠☠☠☠☠

| x  Slap (thumb)
| h  Hammer-on
| /  Slide up

☠☠☠☠☠☠☠☠☠☠☠☠☠☠☠☠☠☠☠☠☠☠☠☠☠☠☠☠☠☠☠☠☠☠☠☠

Other versions of Abcdefu

Alternative guitar chords and tabs for Abcdefu by GAYLE

Find guitar tabs and chords

A B C D E F G H I J K L M N O P Q R S T U V W X Y Z #