Abcdefu Angrier by GAYLE

Abcdefu Angrier tab by GAYLE

Guitar tabs

🎸 Intro:

E|----------------------------------------------------------------------------------------------------------|
B|----------------------------------------------------------------------------------------------------------|
G|----------------------------------------------------------------------------------------------------------|
D|--------------9-9-9-9-9-9-9-9---------------------------6-6-6-6-6-6-6-6-----------------------------------|
A|--------------7-7-7-7-7-7-7-7------6-6-6-6-6-6-6-6------4-4-4-4-4-4-4-4------7-7-7-7-7-7-7-7--------------|
E|-----------------------------------4-4-4-4-4-4-4-4---------------------------5-5-5-5-5-5-5-5--------------|



🎸 Verse:

E|---------------------------------------------------------------------------------------------------------|
B|---------------------------------------------------------------------------------------------------------|
G|---------------------------------------------------------------------------------------------------------|
D|-------------9-9-9-9-9-9-9---------------------------6-6-6-6-6-6-6-6-------------------------------------|
A|-------------7-7-7-7-7-7-7------6-6-6-6-6-6-6-6------4-4-4-4-4-4-4-4------7-7-7-7-7-7-7-7----------------|
E|--------------------------------4-4-4-4-4-4-4-4---------------------------5-5-5-5-5-5-5-5----------------|


🎸 Pre-Chorus:

E|----------------------------------------------------------------------------------------------------------|
B|----------------------------------------------------------------------------------------------------------|
G|----------------------------------------------------------------------------------------------------------|
D|-------------9-9-9-9-9-9-9-9--------------------------6-6-6-6-6-6-6-6-------------------------------------|
A|-------------7-7-7-7-7-7-7-7-----6-6-6-6-6-6-6-6------4-4-4-4-4-4-4-4------7-7-7-7-7-7-7-7----------------|
E|---------------------------------4-4-4-4-4-4-4-4---------------------------5-5-5-5-5-5-5-5----------------|


🎸 Chorus:

E|----------------------------------------------------------------------------------------------------------|
B|----------------------------------------------------------------------------------------------------------|
G|----------------------------------------------------------------------------------------------------------|
D|----------------------------9-9-9-9-9-9-9-9---------------------------6-6-6-6-6-6-6-6---------------------|
A|----5-5-5-5-5-5-5-5---------7-7-7-7-7-7-7-7-----6-6-6-6-6-6-6-6-------4-4-4-4-4-4-4-4-----7-7-7-7-7-7-7-7-|
E|----5-5-5-5-5-5-5-5-----------------------------4-4-4-4-4-4-4-4---------------------------5-5-5-5-5-5-5-5-|


🎸 Post-Chorus:

E|----------------------------------------------------------------------------------------------------------|
B|----------------------------------------------------------------------------------------------------------|
G|----------------------------------------------------------------------------------------------------------|
D|--------9-9-9-9-9-9-9-9--------------------------6-6-6-6-6-6-6-6--------------------------9-9-9-9-9-9-9-9-|
A|--------7-7-7-7-7-7-7-7------6-6-6-6-6-6-6-6-----4-4-4-4-4-4-4-4------7-7-7-7-7-7-7-7-----7-7-7-7-7-7-7-7-|
E|-----------------------------4-4-4-4-4-4-4-4--------------------------5-5-5-5-5-5-5-5---------------------|


🎸 Outro:

E|----------------------------------------------------------------------------------------------------------|
B|----------------------------------------------------------------------------------------------------------|
G|----------------------------------------------------------------------------------------------------------|
D|----------------------------9-9-9-9-9-9-9-9---------------------------6-6-6-6-6-6-6-6---------------------|
A|------7-7-7-7-7-7-7-7-------7-7-7-7-7-7-7-7------7-7-7-7-7-7-7-7------4-4-4-4-4-4-4-4------7-7-7-7-7-7-7-7|
E|------5-5-5-5-5-5-5-5----------------------------4-4-4-4-4-4-4-4---------------------------5-5-5-5-5-5-5-5|

Other versions of Abcdefu Angrier

Alternative guitar chords and tabs for Abcdefu Angrier by GAYLE

Find guitar tabs and chords

A B C D E F G H I J K L M N O P Q R S T U V W X Y Z #