Log in

One click and you are in

Login with Facebook Login with Google

Why sign up and log in

Guitar Tabs Explorer
The Gathering tabs for Strange machines

Guitar tabs with lyrics

Album: Mandylion
Tabbed by Kyle McIntyre (moonsblade@hotmail.com)

Drop A chord diagramD MajorD Tuning

<-Key->
/ Slide Up
\ Slide Down
~ Vibrato
h hammer on
p pull off
b bend

A chord diagramA augmentedA few notes about this

At times in this song it sounds like there are two guitars playing.
I didn't write it out for two guitars, but if you want to add a
second one, it's usually just playing the power chords that match
whatever the first guitar is doing.

I'm not entirely sure if I got the end right, it's very hard to
hear. I think it's close though. Enjoy!

-Start Intro (:01)

|-------------------------------------------------------------|
|-------------------------------------------------------------|
|-------------------------------------------------------------|
|-5--5--5--5--5--5--5--5--------------------------------------|
|-5--5--5--5--5--5--5--5--8--8--8--8--7--7--7--7--------------|
|-5--5--5--5--5--5--5--5--------------------------------------|
Repeat 4 times

-End Intro-

-Start Bridge (:32)-

|-------------------------------------------------------------|
|-------------------------------------------------------------|
|-------------------------------------------------------------|
|--10--10--10--10--10--10--10--10--8--8--8--8--3--3--3--------|
|--10--10--10--10--10--10--10--10--8--8--8--8--3--3--3--------|
|--10--10--10--10--10--10--10--10--8--8--8--8--3--3--3--------|

-End Bridge-

-Start Verse (:38)-

|-------------------------------------------------------------|
|-------------------------------------------------------------|
|-------------------------------------------------------------|
|--5---------5----------10------------9---------7-------------|
|--5---------5-----------8------------7---------5-------------|
|--5---------5------------------------------------------------|

-End Verse-

-Start Chorus (1:09)-

|-------------------------------------------------------------|
|-------------------------------------------------------------|
|-------------------------------------------------------------|
|--10--10--10--10--10--10--10--10--8--8--8--8--3--3--3--3-----|
|--10--10--10--10--10--10--10--10--8--8--8--8--3--3--3--3-----|
|--10--10--10--10--10--10--10--10--8--8--8--8--3--3--3--3-----|

|-------------------------------------------------------------|
|-------------------------------------------------------------|
|-------------------------------------------------------------|
|---1x--1x--1x--1x--1x--1x--1x--1x--8-----------6-------------|
|---1x--1x--1x--1x--1x--1x--1x--1x--8-----------6-------------|
|---1x--1x--1x--1x--1x--1x--1x--1x--8-----------6-------------|

|-------------------------------------------------------------|
|-------------------------------------------------------------|
|-------------------------------------------------------------|
|---3x--3x--3x--3x--3x--3x--3x--3x----------------------------|
|---3x--3x--3x--3x--3x--3x--3x--3x----------------------------|
|---3x--3x--3x--3x--3x--3x--3x--3x----------------------------|

-End Chorus-

Repeat Verse (1:28)

-Start Heavy Interlude (1:43)-

|-------------------------------------------------------------|
|-------------------------------------------------------------|
|-------------------------------------------------------------|
|-------------------------------------------------------------|
|----------5------------6-5-3-5-------------------------------|
|--0--0-0-----0---0-0-0---------------------------------------|
Repeat six times

|-------------------------------------------------------------|
|-------------------------------------------------------------|
|-------------------------------------------------------------|
|--3-x--x-3-x--x-3-x--x-6---6-6p5-----------------------------|
|--3-x--x-3-x--x-3-x--x-6---6-6p5-----------------------------|
|--3-x--x-3-x--x-3-x--x-6---6-6p5-----------------------------|
Repeat twice

|-------------------------------------------------------------|
|-------------------------------------------------------------|
|-------------------------------------------------------------|
|--1-x--x-1-x--x-1-x--x-5-5-8-6-x--x-6-x--x-6-x--x-6--6p5p3---|
|--1-x--x-1-x--x-1-x--x-5-5-8-6-x--x-6-x--x-6-x--x-6--6p5p3---|
|--1-x--x-1-x--x-1-x--x-5-5-8-6-x--x-6-x--x-6-x--x-6--6p5p3---|
Repeat Twice

|-------------------------------------------------------------|
|-------------------------------------------------------------|
|-------------------------------------------------------------|
|--3-x--x-3-x--x-3-x--x-6---6-6p5-----------------------------|
|--3-x--x-3-x--x-3-x--x-6---6-6p5-----------------------------|
|--3-x--x-3-x--x-3-x--x-6---6-6p5-----------------------------|
Repeat Twice

|-------------------------------------------------------------|
|-------------------------------------------------------------|
|-------------------------------------------------------------|
|--1-x--x-1-x--x-1-x--x-5-5-8-6-x--x-6-x--x-6-x--x-6--6p5p3---|
|--1-x--x-1-x--x-1-x--x-5-5-8-6-x--x-6-x--x-6-x--x-6--6p5p3---|
|--1-x--x-1-x--x-1-x--x-5-5-8-6-x--x-6-x--x-6-x--x-6--6p5p3---|
Repeat Twice

-End Heavy Interlude-

Repeat Verse (2:47)

Repeat Chorus (3:18)

-Start Talking Background (3:37)-

|-------------------------------------------------------------|
|-------------------------------------------------------------|
|-------------------------------------------------------------|
|--0x--0x--0x--0x--0x--0x--0x--0------------------------------|
|--0x--0x--0x--0x--0x--0x--0x--0------------------------------|
|--0x--0x--0x--0x--0x--0x--0x--0------------------------------|
Repeat 8 times

-End Talking Background-

Repeat Chorus (4:10)

-Start Bridge #2 (4:28)-

|-------------------------------------------------------------|
|-------------------------------------------------------------|
|-------------------------------------------------------------|
|---1x--1x--1x--1x--1x--1x--1x--1x--8-----------6-------------|
|---1x--1x--1x--1x--1x--1x--1x--1x--8-----------6-------------|
|---1x--1x--1x--1x--1x--1x--1x--1x--8-----------6-------------|

|-------------------------------------------------------------|
|-------------------------------------------------------------|
|-------------------------------------------------------------|
|---3x--3x--3x--3x--3x--3x--3x--3x----------------------------|
|---3x--3x--3x--3x--3x--3x--3x--3x----------------------------|
|---3x--3x--3x--3x--3x--3x--3x--3x----------------------------|

-End Bridge #2-

Repeat Heavy Interlude (4:40)

-Start Outro (5:23)-

|-------------------------------------------------------------|
|-------------------------------------------------------------|
|-------------------------------------------------------------|
|--0--0-0--0--2-3-5-----0--0-0--0--2-2-2----------------------|
|--0--0-0--0--2-3-5-----0--0-0--0--2-3-2----------------------|
|--0--0-0--0--2-3-5-----0--0-0--0--2-3-2----------------------|
Repeat 8 times

-End Outro-

Other versions of Strange Machines

Strange machinesChords

Almost there ...

Sign in to get your own page with links to favourite songs and more. You are just one click away...

Login with Facebook Login with Google