Search tabs and chords

Browse bands and artists

A B C D E F G H I J K L M N O P Q R S T U V W X Y Z #

Log in

[ Register here | Forgot password ]

Guitar Tabs Explorer
Print

Falling In Love Again chords by David Gates

Guitar chords with lyrics

The title track from the 1979 Album Falling In Love Again which was David Gates 4th solo album

Flyinglibra51Author: Flyinglibra51

  • Tuning: Standard
  • Difficulty: Intermediate
Falling In Love Again
David Gates

Original recording is -27cents flat

Intro Bmaj7  Baug  G#m  B

Just you and I
Baug
Here on the shore
B6
Wind in your hair
B7
Just like before
       Emaj7
When I first held you tight
A7
Promised you love
    B
And love stayed the night


E----7-4--------|
B--4-----7-4-2--|
G---------------|
D---------------|
A---------------|
E---------------|


B
Now even more
Baug
I long for your touch
B6
My heart is on fire
 B7
`cause I want you so much
        Emaj7
And I`m falling in love
A7              B
Falling in love again

E----0-2----------|
B--4-----0-2-4----|
G-----------------|
D-----------------|
A-----------------|
E-----------------|


Emaj7
If you belonged
   F#
To somebody else
        Emaj7
I would steal you away
F#6                          G#m F#m6
Take all your love night and day
            Emaj7    A6
Satisfy you forever


            B              Baug         B6

E-6s7-7-7-5---------------------7-7---7-9-7-9-11-12-11-7-|
B----------------7-7---7---7s-8-----8--------------------|
G-----------6-h8-----8---8-------------------------------|
D--------------------------------------------------------|
A--------------------------------------------------------|
E--------------------------------------------------------|

   B7            E        A             G#m7      C#7    B

E-----7------------7--------7-------------7-11-9-7-6-7-6---|
B--10---10-------9--------8------------------------------9-|
G----------8-6-4-----8-4------8-4---6-4-8------------------|
D----------------------------------------------------------|
A----------------------------------------------------------|
E----------------------------------------------------------|

B
I see your face
Baug
There in the crowd
B6
Knowin` you`re mine
B7
Makes me so proud
         Emaj7
That I`m falling in love
A7              G#m   C#7
Falling in love again
         B
Oooh I`m falling with you
Em6        F#6  B     Baug  Emaj7  E  F#6  B
Falling in love again                Ohhhh

Comments