Log in

One click and you are in

Login with Facebook Login with Google

Why sign up and log in

Guitar Tabs Explorer
The Gaslight Anthem bass tabs for 45

Bass tabs with lyrics

Gaslight Anthem - 45


Intro
G|------------------------------|
D|------------------------------|
A|-3------1-------------3-------|
E|----------------4-------------|
Verse Main Riff (Have you seen my hands)
G|---------------------------------|---------------------------------|
D|-1-1-1-1-1-1-----------------0-0-|-1-1-1-1-1-1-----------------0-0-|
A|-------------1-1-3-3-3-3-3-3-----|-------------1-1-3-3-3-3-3-3-----|
E|---------------------------------|---------------------------------|


Verse End (I can't move on but I can't stay the same)
G|---------------------------------|---------------------------------|
D|-1-1-1-1-1-1---------------------|---------------------------------|
A|-------------1-1-3-3-3-3-3-3-1-1-|-----------------1-1-1-1-1-1-1-1-|
E|---------------------------------|-4-4-4-4-4-4-4-4-----------------|


Pre-Chorus (Haaay-ee-aaayy turn the record over)
G|---------------------------------|
D|-----------------1-1-1-1---------|
A|-3-3-3-3-----------------1-1-1-1-|
E|---------4-4-4-4-----------------|


Chorus (There you go, turn the key and engine over)
G|---------------------------------|
D|-1-1-1-1-------------------------|
A|---------1-1-1-1-3-3-3-3---------|
E|-------------------------4-4-4-4-|

Bridge (Guitar Solo)
G|---------------------------------|
D|---------------------------------|
A|-3-3-3-3-----------------1-1-1-1-|
E|---------3-3-3-3-4-4-4-4---------|


Outro
G|---------------------------------||---------------------------------|
D|---------------------------------||---------------------------------|
A|-6-6-6-6-6-6---------------------||---------------------------------|
E|-------------6-6-4-4-4-4-4-4-4-4-||-6-6-6-6-6-6-6-6-----------------|



Have you seen my hands?
Just look at 'em shake.
And the song just keeps on repeating,
Drop the needle again.
And I dance with your ghost,
Oh, but that ain't the way...
I can't move on and I can't stay the same.

And all my friends say...

"Hey hey, turn the record over.
Hey hey, and I'll see you on the flip side.
There you go, turn the key and engine over.
Let her go, let somebody else lay at her feet. "

Have you seen my heart,
Have you seen how it bleeds?
And the nights are so long, baby,
Out here in the deep.
The tick, ticking of hours, lonely.
I hear the alarm
I used to hear when she would sleep in my arms.

But "better sense" says...

"Hey hey, turn the record over.
Hey hey, and I'll see you on the flip side.
There you go, turn the key and engine over.
Let her go, let somebody else lay at her feet. "

And all my friends say,
"Hey hey, turn the record over.
Hey hey, and I'll see you on the flip side.
There you go, turn the key and engine over.
Let her go, let somebody else lay at her feet. "

Almost there ...

Sign in to get your own page with links to favourite songs and more. You are just one click away...

Login with Facebook Login with Google