Search tabs and chords

Search for song, artist or band

Log in

One click and you are in

Login with Facebook Login with Google

Why sign up and log in

Guitar Tabs Explorer
Gary Lewis And The Playboys bass tabs for Time stands still

Time Stands Still bass tab by Gary Lewis And The Playboys

Gary Lewis And The Playboys bass tabs for Time stands still

Bass tabs

Tuning: Standard (E A D G)

Difficulty: Novice

0:07

G|------------------------------------------------|
D|------------------------------------5-----------|
A|3-----------4-----------5-----------------------|
E|------------------------------------------------|

G|------------------------------------------------------------------------------------------------|
D|------------5-----------------------------------------------------------------------------------|
A|3-----------------------2-----------2-----------1-----------1-----------0-----------0-----------|
E|------------------------------------------------------------------------------------------------|

G|------------------------------------------------------------------------------------------------|
D|------------------------------------------------------------------------------------5-----------|
A|------------------------------------------------3-----------4-----------5-----------------------|
E|4-----------4-----------3-----------3-----------------------------------------------------------|

0:34

G|------------------------------------------------------------------------------------------------|
D|------------------------------------------------------------------------------------------------|
A|3-----------3-----------2-----------2-----------1-----------1-----------0-----------0-----------|
E|------------------------------------------------------------------------------------------------|

G|------------------------------------------------------------------------------------------------|
D|----------------------------------------------------------------------------------------------2-|
A|------------------------------------------------3-----------------------------------3-----------|
E|4-----------4-----------3-----------3-----------------------3-----------3-----------------------|

0:55

G|------------------------------------------------------------------------------------------------|
D|3-----------3----------2------------------------------------2-----------------------2-----------|
A|------------------------------------2-----------0-----------------------0-----------------------|
E|------------------------------------------------------------------------------------------------|

G|------------------------------------------------------------------------------------------------|
D|----------------------------------------------------------------------4-5-----------5-----5-----|
A|5-----------0-----------5-----------0-----------5-----------5-----------------------------------|
E|------------------------------------------------------------------------------------------------|

1:16

G|------------------------------------------------------------------------------------------------|
D|------------------------------------------------------------------------------------------------|
A|3-----------3-----------2-----------2-----------1-----------1-----------0-----------0-----------|
E|------------------------------------------------------------------------------------------------|

G|------------------------------------------------------------------------------------------------|
D|------------------------------------------------------------------------------------5-----------|
A|------------------------------------------------3-----------4-----------5-----------------------|
E|4-----------4-----------3-----------3-----------------------------------------------------------|

1:38

G|------------------------------------------------------------------------------------------------|
D|------------------------------------------------------------------------------------------------|
A|3-----------3-----------2-----------2-----------1-----------1-----------0-----------0-----------|
E|------------------------------------------------------------------------------------------------|

G|--------------------------------------------------------------|
D|--------------------------------------------------------------|
A|--------------------------------------------------------3-----|
E|4-----------4-----------3-------------3-------3---------------|

Almost there ...

Sign in to get your own page with links to favourite songs and more. You are just one click away...

Login with Facebook Login with Google