Search tabs and chords

Search for song, artist or band

Log in

One click and you are in

Login with Facebook Login with Google

Why sign up and log in

Guitar Tabs Explorer
Gandalfs Fist guitar chords for Wardens

Guitar chords with lyrics

  • Tuning: Standard tuning
  • Difficulty: Intermediate
-------------------------------------------------------------------------
                            Artist - Gandalfs fist
                           ************************
                               Song - Wardens
                              ****************
                     Album - The Clockwork Prologue (2019)
                    ***************************************
                             Tabbed By - Ayreon77
                            **********************
-------------------------------------------------------------------------
Tuning = Standard

INTRO NOTES
************                           Muted
e|---------------------------------------------0--1--3--------------|
B|-------------------------------------------3----1--3--------------|
G|-----------------------------------------2------2--4---s----------|
D|---3----------3-5~~~~~--3-5~~~~~-------2--------3--5--5\7~~~~~--s-|
A|--x--5~~~~~~--3-5~~~~~--3-5~~~~~--s--0----------3--5-----------7\-|
E|-x-------------------------------7\-------------1--3--------------|


00:16
SMALL SOLO - PH - Pinch Harmonics
***********                            s             PH
e|----------|----------|--h-p-------|-5\8-7-8~~--8-7-5-----s-----------|
B|---5-6~~~-|-----6~~~-|-5-6-5------|-------------------8-8\10~~~~~~~~-|
G|-7--------|-5-5------|-------7~~~-|----------------------------------|
D|----------|----------|------------|----------------------------------|
A|----------|----------|------------|----------------------------------|
E|----------|----------|------------|----------------------------------|


-------------------
ACOUSTIC PICKING - Mostly throughout the song
*****************
  Dm chord diagramDmDm                                                        Am chord diagramAmAm          F chord diagramFF         G chord diagramGG         Am chord diagramAmAm
e|-------0-1-0-----------1-0---|-------0-1-0-----------1-0-|---------0-|-------1-|-------3-|---------0---------|
B|-----3-------3-------3-----3-|-----3-------3-------3-----|-------1---|-----1---|-----0---|-------1---1-------|
G|---2-----------2---2---------|---2-----------2---2-------|-----2-----|---2-----|---0-----|-----2-------2-----|
D|-0---------------0-----------|-0---------------0---------|---2-------|-3-------|---------|---2-----------2---|
A|-----------------------------|---------------------------|-0---------|---------|---------|-0---------------0-|
E|-----------------------------|---------------------------|-----------|---------|-3-------|-------------------|

-------------------
VERSE 1
********
Dm chord diagramDmDm
Shed all your tears so long
Dm chord diagramDmDm
Shed all your tears so long
         Am chord diagramAmAm
When the sun comes down
        F chord diagramFF             G chord diagramGG      Am chord diagramAmAm
But you never want it left behind


-------------------
VERSE 2
********
Dm chord diagramDmDm
You know your sight is gone
Dm chord diagramDmDm
You know your sight is gone
        Am chord diagramAmAm
But the night is long
        F chord diagramFF             G chord diagramGG      Am chord diagramAmAm
And you never want it left behind


-------------------
CHORUS
*******
        F chord diagramFF              G chord diagramGG   Am chord diagramAmAm
I’m the one that takes you home
         C chord diagramCC                Dm chord diagramDmDm
Not much fighting left to do
              Am chord diagramAmAm
And that’s so wrong
        F chord diagramFF              G chord diagramGG   Am chord diagramAmAm
I’m the one that takes you home
        Em chord diagramEmEm     G chord diagramGG       Am chord diagramAmAm
Now the li-----ght has shone


-------------------
01:25
SOLO 1
*******
  Guitar 1
    s                     h p             s
e|-5\8-7-8~~~--8-7-8~~~--7-8-7-------8-7-8\10~~~--8-7-------h-----------|
B|-----------------------------10~~~------------------10-8-8-10~~~~~~~~-|
G|----------------------------------------------------------------------|
D|----------------------------------------------------------------------|
A|----------------------------------------------------------------------|
E|----------------------------------------------------------------------|


  Guitar 1                h p             s
e|-8-7-8~~~---8-7-8~~~---7-8-7-------8-7-8\10~~~----8-7---------h-------|
B|-----------------------------10~~~----------------------10-8-8-10~~~~-|
G|----------------------------------------------------------------------|
D|----------------------------------------------------------------------|
A|----------------------------------------------------------------------|
E|----------------------------------------------------------------------|
 |                                                                      |
 |Guitar 2                                                              |
e|------------------------h--p---------------s--------------------------|
B|-13-12-13~~-13-12-13--12-13-12-----13-12-13\15~~--13-12---------s-----|
G|-------------------------------14-----------------------14-12-12\14~~-|
D|----------------------------------------------------------------------|
A|----------------------------------------------------------------------|
E|----------------------------------------------------------------------|


-------------------
VERSE 3
********
Dm chord diagramDmDm
Whence now death has come
Dm chord diagramDmDm
Where the now the light has shone
       Am chord diagramAmAm
But it shone to bright
        F chord diagramFF             G chord diagramGG      Am chord diagramAmAm
And you never want it left behind


-------------------
VERSE 4
********
Dm chord diagramDmDm
Know you, the night has grown
Dm chord diagramDmDm
Know you, the night has grown
       Am chord diagramAmAm
As you claw the ground
F chord diagramFF        G chord diagramGG      Am chord diagramAmAm
Never to stay behind

                                     p  p
-------------------             e|-13-12-10-----s-|
CHORUS                          B|----------13~~\-|
*******                         G|----------------|
        F chord diagramFF              G chord diagramGG   Am chord diagramAmAm   D|----------------|
I’m the one that takes you home A|----------------|
         C chord diagramCC                Dm chord diagramDmDm    E|----------------|
Not much fighting left to do
              Am chord diagramAmAm
And that’s so wrong
        F chord diagramFF              G chord diagramGG   Am chord diagramAmAm
I’m the one that takes you home
        Em chord diagramEmEm     G chord diagramGG       Am chord diagramAmAm
Now the li-----ght has shone


-------------------
02:48
ACOUSTIC SOLO
**************

e|----5-8-6-5---------------------|----5-8-6-5---------------------|
B|---5--------8-6-5-------5-6-5~~-|---5--------8-6-5---------------|
G|--5---------------7-7-6---------|--5---------------7-7-6-7-6-7~~-|
D|-x------------------------------|-x------------------------------|
A|--------------------------------|--------------------------------|
E|--------------------------------|--------------------------------|


e|----5-8-6-5----------h-p------|---------------5-------------|
B|---5--------8~~--6--6-8-6-----|-------5-6-5-6---6-5---------|
G|--5-----------------------7~~-|-7-6-7---------------7-6-7~~-|
D|-x----------------------------|-----------------------------|
A|------------------------------|-----------------------------|
E|------------------------------|-----------------------------|


-------------------
ELECTRIC SOLO - Working on it. - HARD
**************

-------------------
CHORUS
*******
        F chord diagramFF              G chord diagramGG   Am chord diagramAmAm
I’m the one that takes you home
         C chord diagramCC                Dm chord diagramDmDm
Not much fighting left to do
              Am chord diagramAmAm
And that’s so wrong
        F chord diagramFF              G chord diagramGG   Am chord diagramAmAm
I’m the one that takes you home
         Em chord diagramEmEm               G chord diagramGG
Not much fighting left to do
            Dm chord diagramDmDm
What’s this poor man to do
        Em chord diagramEmEm     G chord diagramGG       Am chord diagramAmAm
Now the li-----ght has shone


ENJOY.............

Wardens chords

Gandalfs Fist guitar chords for Wardens From there newest Album The Clockwork Prologue (2019)

Almost there ...

Sign in to get your own page with links to favourite songs and more. You are just one click away...

Login with Facebook Login with Google